Guitaretab - guitar tabs
Song name
# A B C D E F G H I J K L M N O P Q R S T U V W X Y Z

Taking Back Sunday - Spin tab

Song: Spin
Artist: Taking Back Sunday
Album: Louder Now
Tuning: DbAbDbGbBbEb
Tabbed by Graham  ggraham96@hotmail.com

INTRO
	Guitar one               (x2)                                              (x2)
Eb|----<5>-----------------------------|------------12--0--10-----------|
Bb|----------<5>------------<7>--------|----10-12--------------12-10----|
Gb|------------------<5>---------<7>---|--------------------------------|
Db|------------------------------------|--------------------------------|
Ab|------------------------------------|--------------------------------|
Db|------------------------------------|--------------------------------|

Eb|------------12--0-10---------------------12--0-10-----------------------|
Bb|---10-12--------------12-10---------10-12-----------10-12----10/1210----|
Gb|12----------------------------12--------------------------12------------|
Db|------------------------------------------------------------------------|
Ab|------------------------------------------------------------------------|
Db|------------------------------------------------------------------------|

Eb|--------------------------------------------------------------------|
Bb|-----10-------------------------------------------------------------|
Gb|--12-----12-11------------------------------------------------------|
Db|--------------------------------------------------------------------|
Ab|--------------------------------------------------------------------|
Db|--------------------------------------------------------------------|

           Guitar two                (x2)                   (x2)
Eb|----------------------------------------|-------------------------------|
Bb|----5---(let ring)----------------------|-------------------------------|
Gb|----------------------------------------|-------------------------------|
Db|----------------------------------------|---2-2-2-2-2-2-2-2-4-4-4-4-4-4-|
Ab|----------------------------------------|---2-2-2-2-2-2-2-2-5-5-5-5-5-5-|
Db|----------------------------------------|---2-2-2-2-2-2-2-2-4-4-4-4-4-4-|

Eb|---------------------------------------------|
Bb|---------------------------------------------|
Gb|---------------------------------------------|
Db|-4-4-5-5-5-5-5-5-5-5-10-10-10-10-10-10-10-10-|
Ab|-5-5-5-5-5-5-5-5-5-5-10-10-10-10-10-10-10-10-|
Db|-4-4-5-5-5-5-5-5-5-5-10-10-10-10-10-10-10-10-|


VERSE I
	Guitar two
Eb|-----------------------------------------------------------------------|
Bb|-----------------------------------------------------------------------|
Gb|----------9----9-9-----------------------------------------------------|
Db|--2--2----x----x-x----7---7---7-7----10--10---10--10---4---4---4-4-----|
Ab|--2--2-/--7----7-7----7---7---7-7----10--10---10--10---5---5---5-5-----|
Db|--2--2----------------7---7---7-7----10--10---10--10---4---4---4-4-----|


	Guitar one
Eb|-----------------------------------------------------------------------|
Bb|--------------------------------------------------<5>------------------|
Gb|----------------------------------------------<5>----------------------|
Db|-----------------------------------------------------------------------|
Ab|-----------------------------------------------------------------------|
Db|-----------------------------------------------------------------------|

	Guitar two
Eb|------------------------------------------------------------------------|
Bb|------------------------------------------------------------------------|
Gb|----------9----9-9------------------------------------------------------|
Db|--2--2----x----x-x----7---7---7-7----10--10---10--10---444-4-444-4-44-4-|
Ab|--2--2-/--7----7-7----7---7---7-7----10--10---10--10---555-5-555-5-55-5-|
Db|--2--2----------------7---7---7-7----10--10---10--10---444-4-444-4-44-4-|
							  p.m   p.m   p.m

        Guitar one
Eb|--------------------------------------------------------------------------|
Bb|-----------------------------7/87~---------------<5>----------------------|
Gb|----------------------------------------------<5>-------------------------|
Db|--------------------------------------------------------------------------|
Ab|--------------------------------------------------------------------------|
Db|--------------------------------------------------------------------------|

PRECHORUS
	Guitar two
Eb|----------------------------------------------------------------------|
Bb|----------------------------------------------------------------------|
Gb|----------------------------------------------------------------------|
Db|--3333333333333333-2222222222222222-3333333333333333-7777777788888888-|
Ab|--3333333333333333-2222222222222222-3333333333333333-7777777788888888-|
Db|--3333333333333333-2222222222222222-3333333333333333-7777777788888888-|

        Guitar one
Eb|----------------------------------------------------------------|
Bb|----------------------------------------------------------------|
Gb|----------------------------12--------11---------12---------11--|
Db|----------------------------------------------------------------|
Ab|----------------------------------------------------------------|
Db|----------------------------------------------------------------|
			                 (speed pick notes)

CHORUS
	Guitar two                      (x3)
Eb|------------------------------------------------------------------|
Bb|------------------------------------------------------------------|
Gb|------------------------------------------------------------------|
Db|-22222222-44444444-55555555-1010101010101010----------------------|
Ab|-22222222-55555555-55555555-1010101010101010----------------------|
Db|-22222222-44444444-55555555-1010101010101010----------------------|

	Guitar two
Eb|----------------------------------------------------------|
Bb|----------------------------------------------------------|
Gb|----------------------------------------------------------|
Db|-22222222-44444444-1010101010101010-(10--------------)----|
Ab|-22222222-55555555-1010101010101010-(10-many times)-------|
Db|-22222222-44444444-1010101010101010-(10--------------)----|


VERSE II
	Guitar two
Eb|--------------------------------------------------------------------|
Bb|--------------------------------------------------------------------|
Gb|----------9----9-9--------------------------------------------------|
Db|--2--2----x----x-x----7---7---7-7----10--10---10--10---4---4---4-4--|
Ab|--2--2-/--7----7-7----7---7---7-7----10--10---10--10---5---5---5-5--|
Db|--2--2----------------7---7---7-7----10--10---10--10---4---4---4-4--|


	Guitar one
Eb|--------------------------------------------------------------------|
Bb|--------------------------------------------------<5>---------------|
Gb|----------------------------------------------<5>-------------------|
Db|--------------------------------------------------------------------|
Ab|--------------------------------------------------------------------|
Db|--------------------------------------------------------------------|
[ Tab from: http://www.guitaretab.com/t/taking-back-sunday/143495.html ]
	Guitar two
Eb|------------------------------------------------------------------------|
Bb|------------------------------------------------------------------------|
Gb|----------9----9-9------------------------------------------------------|
Db|--2--2----x----x-x----7---7---7-7----10--10---10--10---444-4-444-4-44-4-|
Ab|--2--2-/--7----7-7----7---7---7-7----10--10---10--10---555-5-555-5-55-5-|
Db|--2--2----------------7---7---7-7----10--10---10--10---444-4-444-4-44-4-|
							  p.m   p.m   p.m

	Guitar one
Eb|--------------------------------------------------------------------------|
Bb|-----------------------------7/87~---------------<5>----------------------|
Gb|----------------------------------------------<5>-------------------------|
Db|--------------------------------------------------------------------------|
Ab|--------------------------------------------------------------------------|
Db|--------------------------------------------------------------------------|


PRECHORUS
	Guitar two
Eb|----------------------------------------------------------------------|
Bb|----------------------------------------------------------------------|
Gb|----------------------------------------------------------------------|
Db|--3333333333333333-2222222222222222-3333333333333333-7777777788888888-|
Ab|--3333333333333333-2222222222222222-3333333333333333-7777777788888888-|
Db|--3333333333333333-2222222222222222-3333333333333333-7777777788888888-|

        Guitar one
Eb|----------------------------------------------------------------|
Bb|----------------------------------------------------------------|
Gb|----------------------------12--------11---------12---------11--|
Db|----------------------------------------------------------------|
Ab|----------------------------------------------------------------|
Db|----------------------------------------------------------------|
			                 (speed pick notes)

CHORUS II
	Guitar two                      (x4)
Eb|------------------------------------------------------------------|
Bb|------------------------------------------------------------------|
Gb|------------------------------------------------------------------|
Db|-22222222-44444444-55555555-1010101010101010----------------------|
Ab|-22222222-55555555-55555555-1010101010101010----------------------|
Db|-22222222-44444444-55555555-1010101010101010----------------------|

BRIDGE
	Guitar two
Eb|-----------------------------------------------------------------------|
Bb|-----------------------------------------------------------------------|
Gb|-----------------------------------------------------------------------|
Db|--3333333333333333-2222222222222222-3333333333333333-2xx2xx2xx2xx22----|
Ab|--3333333333333333-2222222222222222-3333333333333333-2xx2xx2xx2xx22----|
Db|--3333333333333333-2222222222222222-3333333333333333-2xx2xx2xx2xx22----|

Eb|----------------------|
Bb|----------------------|
Gb|----------------------|
Db|-2xx2xx2xx2xx2--------|
Ab|-2xx2xx2xx2xx2--------|
Db|-2xx2xx2xx2xx2--------|

	Guitar one                                                    (x2)
Eb|-------------------12--0--10--------------------------------------------|
Bb|-----------10-12--------------12-10---------10-/-12--10----10-----------|
Gb|---------------------------------------12----------------12----12-11----|
Db|------------------------------------------------------------------------|
Ab|------------------------------------------------------------------------|
Db|------------------------------------------------------------------------|

Eb|------------12--0-10--------12107-0/10-|-------12-10-------------|
Bb|---10-12---------------12-10--------------------|-10-12---------12-10--|
Gb|------------------------------------------------|----------------------|
Db|------------------------------------------------|----------------------|
Ab|------------------------------------------------|----------------------|
Db|------------------------------------------------|----------------------|

Eb|--12107-0/10--12---12(bend full step)-----------------------------|
Bb|-----------------------------------------------7/87---8----------------|
Gb|-----------------------------------------------------7---7-7/9---------|
Db|-----------------------------------------------------------------------|
Ab|-----------------------------------------------------------------------|
Db|-----------------------------------------------------------------------|

Eb|---------------------7--------|
Bb|--12/10----12-----------------|
Gb|--------------9---------------|
Db|------------------------------|
Ab|-----------------------<7>----|
Db|------------------------------|

	Guitar two   (x4)
Eb|--------------------------------|
Bb|--------0-----0-----0----0------|
Gb|------0-----0-----0--------0----|
Db|----2-----4-----5---------------|
Ab|-----------------------3--------|
Db|--------------------------------|

	Guitar one (start at 3rd repeat of guitar two)
Eb|----12-----14-15--------------------------------------------------|
Bb|--------------------12--15----12--1515(bend full step)-----------|
Gb|------------------------------------------------------------------|
Db|------------------------------------------------------------------|
Ab|------------------------------------------------------------------|
Db|------------------------------------------------------------------|
	(speed pick all notes)

CHORUS III
	Guitar two                      (x5)
Eb|------------------------------------------------------------------|
Bb|------------------------------------------------------------------|
Gb|------------------------------------------------------------------|
Db|-22222222-44444444-55555555-1010101010101010----------------------|
Ab|-22222222-55555555-55555555-1010101010101010----------------------|
Db|-22222222-44444444-55555555-1010101010101010----------------------|

	Guitar one (start at 5th repeat of guitar two) (x2)
Eb|-------------------12--0--10--------------------|
Bb|-----------10-12--------------12-10-------------|
Gb|------------------------------------12----------|
Db|------------------------------------------------|
Ab|------------------------------------------------|
Db|------------------------------------------------|

	Guitar one						(x2)
Eb|----------12--10---------12-10-7-0/10--|------12-10------------------|
Bb|--10-12------------12-10-----------------------|-10-12--------12-10-------|
Gb|-----------------------------------------------|---------------------12---|
Db|-----------------------------------------------|--------------------------|
Ab|-----------------------------------------------|--------------------------|
Db|-----------------------------------------------|--------------------------|

QUICK OUTRO
	Guitar two
Eb|----------------------------------------------------------|
Bb|----------------------------------------------------------|
Gb|----------------------------------------------------------|
Db|-22222222-44444444-1010101010101010-(10--------------)----|
Ab|-22222222-55555555-1010101010101010-(10-many times)-------|
Db|-22222222-44444444-1010101010101010-(10--------------)----|

Guitar one
Eb|----------------------------------------------------------|
Bb|----------------------------------------------------------|
Gb|-----------------------------12--11---9----11-------------|
Db|----------------------------------------------------------|
Ab|----------------------------------------------------------|
Db|----------------------------------------------------------|
		Speed pick all notes

Guitar two
Eb|---------------------------------|
Bb|---------------------------------|
Gb|---------------------------------|
Db|--2-x-x-2-x-x-2------------------|
Ab|--2-x-x-2-x-x-2------------------|
Db|--2-x-x-2-x-x-2------------------|
Related for Spin tab