Song name
# A B C D E F G H I J K L M N O P Q R S T U V W X Y Z

Taking Back Sunday - My Blue Heaven tab

----------------------------------------------------------------------------
			     My Blue Heaven - Taking Back Sunday
----------------------------------------------------------------------------





 

Gtr I (Db Ab Db Gb Bb Eb) 
Gtr II (Db Ab Db Gb Bb Eb) 
Gtr III (Db Ab Db Gb Bb Eb)
Gtr IV (Db Ab Db Gb Bb Eb) 
Gtr V (Db Ab Db Gb Bb Eb)
Gtr VI (Db Ab Db Gb Bb Eb)





   Intro/Verse
    Gtr I
||--------------------------------------------------------------|
||o---------------------<7>-(<7>)---------------------<7>-(<7>)-|
||------------<7>-(<7>)---------------------<5>-(<5>)-----------|
||--9S7-0-(0)---------------------5S7-0-(0)---------------------|
||o-------------------------------------------------------------|
||--------------------------------------------------------------|


                                                                3x
|---------------------------------------------------------------||
|---------------------<7>-(<7>)---------------------<7>-(<7>)--o||
|-----------<7>-(<7>)---------------------<5>-(<5>)-------------||
|-9S7-0-(0)---------------------5S7-0-(0)-----------------------||
|--------------------------------------------------------------o||
|---------------------------------------------------------------||


  Gtr I
  
|-------------------------------------------------------------|
|---------------------<7>-(<7>)---------------------<7>-(<7>)-|
|-----------<7>-(<7>)---------------------<5>-(<5>)-----------|
|-9S7-0-(0)---------------------5S7-0-(0)---------------------|
|-------------------------------------------------------------|
|-------------------------------------------------------------|
|
| Gtr III
| PM-----------------------------------------------------------
| 
|-------------------------------------------------------------|
|-------------------------------------------------------------|
|-------------------------------------------------------------|
|-4-4-4--4---4----4----4----4---6-6-6--6---6----6----6----6---|
|-2-2-2--2---2----2----2----2---4-4-4--4---4----4----4----4---|
|-------------------------------------------------------------|



|---------------------------------------------------------------|
|---------------------<7>-(<7>)---------------------<7>-(<7>)---|
|-----------<7>-(<7>)---------------------<5>-(<5>)-------------|
|-9S7-0-(0)---------------------5S7-0-(0)-----------------------|
|---------------------------------------------------------------|
|---------------------------------------------------------------|
|
|PM-------------------------------------------------------|
| 
|---------------------------------------------------------------|
|---------------------------------------------------------------|
|---------------------------------------------------------------|
|-7-7-7--7---7----7----7----7-----------------------------------|
|-5-5-5--5---5----5----5----5---5-5-5--5---5----5----5----5-----|
|-------------------------------5-5-5--5---5----5----5----5-----|



|-------------------------------------------------------------|
|---------------------<7>-(<7>)---------------------<7>-(<7>)-|
|-----------<7>-(<7>)---------------------<5>-(<5>)-----------|
|-9S7-0-(0)---------------------5S7-0-(0)---------------------|
|-------------------------------------------------------------|
|-------------------------------------------------------------|
|
| PM-----------------------------------------------------------
| 
|-------------------------------------------------------------|
|-------------------------------------------------------------|
|-------------------------------------------------------------|
|-4-4-4--4---4----4----4----4---6-6-6--6---6----6----6----6---|
|-2-2-2--2---2----2----2----2---4-4-4--4---4----4----4----4---|
|-------------------------------------------------------------|


                                Gtr III Gtr I
  
|-------------------------------------------------------------|
|---------------------<7>-(<7>)-------------------<7>-(<7>)---|
|-----------<7>-(<7>)-------------------<5>-(<5>)-------------|
|-9S7-0-(0)---------------------5-5-5-------------------------|
|-------------------------------5-5-5-------------------------|
|-------------------------------5-5-5-------------------------|
|
|PM-------------------------|
| 
|-------------------------------------------------------------|
|-------------------------------------------------<7>-(<7>)---|
|---------------------------------------<8>-(<8>)-------------|
|-7-7-7--7---7----7----7----7---5-5-5-------------------------|
|-5-5-5--5---5----5----5----5---5-5-5-------------------------|
|-------------------------------5-5-5-------------------------|


 Chorus
  Gtr III
  
|---------------------------------------------|
|---------------------------------------------|
|--7--7--7----7--7----7--7----7--7----7--7--7-|
|--7--7--7----7--7----7--7----7--7----7--7--7-|
|--5--5--5----5--5----5--5----5--5----5--5--5-|
|---------------------------------------------|
|
| Gtr IV
| 
|---------------------------------------------|
|---------------------------------------------|
|-11-11-11---11-11---11-11---11-11---11-11-11-|
|--x--x--x----x--x----x--x----x--x----x--x--x-|
|--9--9--9----9--9----9--9----9--9----9--9--9-|
|---------------------------------------------|



|-----------------------------------------------|
|-----------------------------------------------|
|--6--6--6----6--6----6--6----6--6----6--6--6---|
|--6--6--6----6--6----6--6----6--6----6--6--6---|
|--4--4--4----4--4----4--4----4--4----4--4--4---|
|-----------------------------------------------|
|
|  
|-----------------------------------------------|
|-----------------------------------------------|
|-12-12-12---12-12---12-12---12-12---12-14-14---|
|--x--x--x----x--x----x--x----x--x----x--x--x---|
|-10-10-10---10-10---10-10---10-10---10-12-12---|
|-----------------------------------------------|



|---------------------------------------------|
|---------------------------------------------|
|--4--4--4----4--4----4--4----4--4----4--4--4-|
|--4--4--4----4--4----4--4----4--4----4--4--4-|
|--2--2--2----2--2----2--2----2--2----2--2--2-|
|---------------------------------------------|
|
| 
|---------------------------------------------|
|---------------------------------------------|
|-11-11-11---11-11---11-11---11-11---11-11-11-|
|--x--x--x----x--x----x--x----x--x----x--x--x-|
|--9--9--9----9--9----9--9----9--9----9--9--9-|
|---------------------------------------------|


   
|-----------------------------------------------|
|-----------------------------------------------|
|--3--3--3----3--3----3--3----3--3----3--3--3---|
|--3--3--3----3--3----3--3----3--3----3--3--3---|
|--1--1--1----1--1----1--1----1--1----1--1--1---|
|-----------------------------------------------|
|
| 
|-----------------------------------------------|
|-----------------------------------------------|
|-12-12-12---12-12---12-12---12-12---12-12-12---|
|--x--x--x----x--x----x--x----x--x----x--x--x---|
|-10-10-10---10-10---10-10---10-10---10-10-10---|
|-----------------------------------------------|


  
|---------------------------------------------|
|---------------------------------------------|
|--7--7--7----7--7----7--7----7--7----7--7--7-|
|--7--7--7----7--7----7--7----7--7----7--7--7-|
|--5--5--5----5--5----5--5----5--5----5--5--5-|
|--0--0--0----0--0----0--0----0--0----0--0--0-|
|
| 
|---------------------------------------------|
|---------------------------------------------|
|-11-11-11---11-11---11-11---11-11---11-11-11-|
|--x--x--x----x--x----x--x----x--x----x--x--x-|
|--9--9--9----9--9----9--9----9--9----9--9--9-|
|---------------------------------------------|


  
|-----------------------------------------------|
|-----------------------------------------------|
|--6--6--6----6--6----6-------------------------|
|--6--6--6----6--6----6--7----7--7----7--7--7---|
|--4--4--4----4--4----4--7----7--7----7--7--7---|
|------------------------7----7--7----7--7--7---|
|
|  
|-----------------------------------------------|
|-----------------------------------------------|
|-12-12-12---12-12---12-12---12-12---12-12-12---|
|--x--x--x----x--x----x--x----x--x----x--x--x---|
|-10-10-10---10-10---10-10---10-10---10-10-10---|
|-----------------------------------------------|


   
|---------------------------------------------|
|---------------------------------------------|
|--4--4--4----4--4----4--4----4--4----4--4--4-|
|--4--4--4----4--4----4--4----4--4----4--4--4-|
|--2--2--2----2--2----2--2----2--2----2--2--2-|
|---------------------------------------------|
|
|  
|---------------------------------------------|
|---------------------------------------------|
|-11-11-11---11-11---11-11---11-11---11-11-11-|
|--x--x--x----x--x----x--x----x--x----x--x--x-|
|--9--9--9----9--9----9--9----9--9----9--9--9-|
|---------------------------------------------|


   
|-----------------------------------------------|
|-----------------------------------------------|
|--3--3--3----3--3----3--3----3--3----3--3--3---|
|--3--3--3----3--3----3--3----3--3----3--3--3---|
|--1--1--1----1--1----1--1----1--1----1--1--1---|
|-----------------------------------------------|
|
| 
|-----------------------------------------------|
|-----------------------------------------------|
|-12-12-12---12-12---12-12---12-12---12-12-12---|
|--x--x--x----x--x----x--x----x--x----x--x--x---|
|-10-10-10---10-10---10-10---10-10---10-10-10---|
|-----------------------------------------------|


   Interlude
    Gtr VI
   
||-----------------------------------------------------------|
||o----------------------------------------------------------|
||-----------------------------------------------------------|
||--/9-(9)-(9)-(9)-(9)-(9)-9S11--7-(7)-(7)-(7)-(7)-(7)-5p=4--|
||o----------------------------------------------------------|
||-----------------------------------------------------------|
|
|   Gtr II
|    
||-----------------------------------------------------------|
||o----------------------------------------------------------|
||---4-(4)-(4)-(4)-(4)-(4)-4-(4)-6-(6)-(6)-(6)-(6)-(6)-6-(6)-|
||---4-(4)-(4)-(4)-(4)-(4)-4-(4)-6-(6)-(6)-(6)-(6)-(6)-6-(6)-|
||o--2-(2)-(2)-(2)-(2)-(2)-2-(2)-4-(4)-(4)-(4)-(4)-(4)-4-(4)-|
||-----------------------------------------------------------|


 
|-------------------------------------------------------------||
|------------------------------------------------------------o||
|-------------------------------------------------------------||
|-5p=4--(4)---------------------------------------------------||
|------------5--(5)-(5)-0-(0)-2-(2)-(2)-(2)-(2)-(2)-(2)-(2)--o||
|-------------------------------------------------------------||
|
| 
|-------------------------------------------------------------||
|------------------------------------------------------------o||
|-7-(7)-(7)-(7)-(7)-(7)---------------------------------------||
|-7-(7)-(7)-(7)-(7)-(7)-7-(7)-9-(9)-(9)-(9)-(9)-(9)-(9)-(9)---||
|-5-(5)-(5)-(5)-(5)-(5)-7-(7)-9-(9)-(9)-(9)-(9)-(9)-(9)-(9)--o||
|-----------------------7-(7)-9-(9)-(9)-(9)-(9)-(9)-(9)-(9)---||


   Verse
    Gtr I
||--------------------------------------------------------------|
||o---------------------<7>-(<7>)---------------------<7>-(<7>)-|
||------------<7>-(<7>)---------------------<5>-(<5>)-----------|
||--9S7-0-(0)---------------------5S7-0-(0)---------------------|
||o-------------------------------------------------------------|
||--------------------------------------------------------------|
|
|   Gtr III
|   PM-----------------------------------------------------------
|  
||--------------------------------------------------------------|
||o-------------------------------------------------------------|
||--------------------------------------------------------------|
||--4-4-4--4---4----4----4----4---6-6-6--6---6----6----6----6---|
||o-2-2-2--2---2----2----2----2---4-4-4--4---4----4----4----4---|
||--------------------------------------------------------------|


  
|---------------------------------------------------------------||
|---------------------<7>-(<7>)---------------------<7>-(<7>)--o||
|-----------<7>-(<7>)---------------------<5>-(<5>)-------------||
|-9S7-0-(0)---------------------5S7-0-(0)-----------------------||
|--------------------------------------------------------------o||
|---------------------------------------------------------------||
|
|-------------------------------------------------------|
| 
|---------------------------------------------------------------||
|--------------------------------------------------------------o||
|---------------------------------------------------------------||
|-7-7-7--7---7----7----7----7-----------------------------------||
|-5-5-5--5---5----5----5----5---5-5-5--5---5----5----5----5----o||
|-------------------------------5-5-5--5---5----5----5----5-----||


  Gtr V
  
|-------------------------------------------------------------|
|---------------------<7>-(<7>)---------------------<7>-(<7>)-|
|-----------<7>-(<7>)---------------------<5>-(<5>)-----------|
|-9S7-0-(0)---------------------5S7-0-(0)---------------------|
|-------------------------------------------------------------|
|-------------------------------------------------------------|
|
| Gtr III
| 
|-------------------------------------------------------------|
|-------------------------------------------------------------|
|-4-4---------------------------6-6---------------------------|
|-4-4---------------------------6-6---------------------------|
|-2-2---------------------------4-4---------------------------|
|-------------------------------------------------------------|


  
|-------------------------------------------------------------------------|
|----------------------------<7>-(<7>)------------------------<7>-(<7>)---|
|-----------------<7>-(<7>)-------------------------<5>-(<5>)-------------|
|-9S=7---0---(0)----------------------5S=7---0--(0)-----------------------|
|-------------------------------------------------------------------------|
|-------------------------------------------------------------------------|
|
| 
|-------------------------------------------------------------------------|
|-------------------------------------------------------------------------|
|-------------------------------------------------------------------------|
|---12-(12)-(12)-(12)-(12)--(12)-(12)S5-(5)-(5)-(5)-(5)--(5)--(5)--(5)----|
|---12-(12)-(12)-(12)-(12)--(12)-(12)S5-(5)-(5)-(5)-(5)--(5)--(5)--(5)----|
|---12-(12)-(12)-(12)-(12)--(12)-(12)S5-(5)-(5)-(5)-(5)--(5)--(5)--(5)----|


  Gtr IV
  PM----------------------------------------------|
  
|---------------------------------|-----------------------------------|
|---------------------------------|-----------------------------------|
|---------------------------------|-----------------------------------|
|-4-4-4-4-4-4-4-4-6-6-6-6-6-6-6-6-|-7-7-7-7-7-7-7-7-5-5-5-5-5---5-----|
|-2-2-2-2-2-2-2-2-4-4-4-4-4-4-4-4-|-5-5-5-5-5-5-5-5-5-5-5-5-5---5-----|
|---------------------------------|-----------------5-5-5-5-5---5-----|
|
| Gtr II
| PM----------------------------------------------|
|
|---------------------------------|-----------------------------------|
|---------------------------------|-----------------------------------|
|---------------------------------|-----------------------------------|
|-4-4-4-4-4-4-4-4-6-6-6-6-6-6-6-6-|-7-7-7-7-7-7-7-7-5-5-5-5-5---5-----|
|-2-2-2-2-2-2-2-2-4-4-4-4-4-4-4-4-|-5-5-5-5-5-5-5-5-5-5-5-5-5---5-----|
|---------------------------------|-----------------5-5-5-5-5---5-----|


 Chorus
  Gtr III
 
|---------------------------------------------|
|---------------------------------------------|
|--7--7--7----7--7----7--7----7--7----7--7--7-|
|--7--7--7----7--7----7--7----7--7----7--7--7-|
|--5--5--5----5--5----5--5----5--5----5--5--5-|
|---------------------------------------------|
|
| Gtr IV
| 
|---------------------------------------------|
|---------------------------------------------|
|-11-11-11---11-11---11-11---11-11---11-11-11-|
|--x--x--x----x--x----x--x----x--x----x--x--x-|
|--9--9--9----9--9----9--9----9--9----9--9--9-|
|---------------------------------------------|


  
|-----------------------------------------------|
|-----------------------------------------------|
|--6--6--6----6--6----6--6----6--6----6--6--6---|
|--6--6--6----6--6----6--6----6--6----6--6--6---|
|--4--4--4----4--4----4--4----4--4----4--4--4---|
|-----------------------------------------------|
|
|  
|-----------------------------------------------|
|-----------------------------------------------|
|-12-12-12---12-12---12-12---12-12---12-14-14---|
|--x--x--x----x--x----x--x----x--x----x--x--x---|
|-10-10-10---10-10---10-10---10-10---10-12-12---|
|-----------------------------------------------|


   
|---------------------------------------------|
|---------------------------------------------|
|--4--4--4----4--4----4--4----4--4----4--4--4-|
|--4--4--4----4--4----4--4----4--4----4--4--4-|
|--2--2--2----2--2----2--2----2--2----2--2--2-|
|---------------------------------------------|
|
|  
|---------------------------------------------|
|---------------------------------------------|
|-11-11-11---11-11---11-11---11-11---11-11-11-|
|--x--x--x----x--x----x--x----x--x----x--x--x-|
|--9--9--9----9--9----9--9----9--9----9--9--9-|
|---------------------------------------------|


   
|-----------------------------------------------|
|-----------------------------------------------|
|--3--3--3----3--3----3--3----3--3----3--3--3---|
|--3--3--3----3--3----3--3----3--3----3--3--3---|
|--1--1--1----1--1----1--1----1--1----1--1--1---|
|-----------------------------------------------|
|
| 
|-----------------------------------------------|
|-----------------------------------------------|
|-12-12-12---12-12---12-12---12-12---12-12-12---|
|--x--x--x----x--x----x--x----x--x----x--x--x---|
|-10-10-10---10-10---10-10---10-10---10-10-10---|
|-----------------------------------------------|


  
|---------------------------------------------|
|---------------------------------------------|
|--7--7--7----7--7----7--7----7--7----7--7--7-|
|--7--7--7----7--7----7--7----7--7----7--7--7-|
|--5--5--5----5--5----5--5----5--5----5--5--5-|
|--0--0--0----0--0----0--0----0--0----0--0--0-|
|
| 
|---------------------------------------------|
|---------------------------------------------|
|-11-11-11---11-11---11-11---11-11---11-11-11-|
|--x--x--x----x--x----x--x----x--x----x--x--x-|
|--9--9--9----9--9----9--9----9--9----9--9--9-|
|---------------------------------------------|


   
|-----------------------------------------------|
|-----------------------------------------------|
|--6--6--6----6--6----6-------------------------|
|--6--6--6----6--6----6--7----7--7----7--7--7---|
|--4--4--4----4--4----4--7----7--7----7--7--7---|
|------------------------7----7--7----7--7--7---|
|
| 
|-----------------------------------------------|
|-----------------------------------------------|
|-12-12-12---12-12---12-12---12-12---12-12-12---|
|--x--x--x----x--x----x--x----x--x----x--x--x---|
|-10-10-10---10-10---10-10---10-10---10-10-10---|
|-----------------------------------------------|


  
|---------------------------------------------|
|---------------------------------------------|
|--4--4--4----4--4----4--4----4--4----4--4--4-|
|--4--4--4----4--4----4--4----4--4----4--4--4-|
|--2--2--2----2--2----2--2----2--2----2--2--2-|
|---------------------------------------------|
|
|  
|---------------------------------------------|
|---------------------------------------------|
|-11-11-11---11-11---11-11---11-11---11-11-11-|
|--x--x--x----x--x----x--x----x--x----x--x--x-|
|--9--9--9----9--9----9--9----9--9----9--9--9-|
|---------------------------------------------|


   
|-----------------------------------------------|
|-----------------------------------------------|
|--3--3--3----3--3----3--3----3--3----3--3--3---|
|--3--3--3----3--3----3--3----3--3----3--3--3---|
|--1--1--1----1--1----1--1----1--1----1--1--1---|
|-----------------------------------------------|
|
|  
|-----------------------------------------------|
|-----------------------------------------------|
|-12-12-12---12-12---12-12---12-12---12-12-12---|
|--x--x--x----x--x----x--x----x--x----x--x--x---|
|-10-10-10---10-10---10-10---10-10---10-10-10---|
|-----------------------------------------------|


 Bridge
|----------------------------------|-----------------------------------|
|----------------------------------|-----------------------------------|
|-9-9-9-9-9-9-9-9-9-9-9-9-9-9-9S11-|-9-9-9-9-9-9-9-9-9-9-9-9-9-9-9-9---|
|-x-x-x-x-x-x-x-x-x-x-x-x-x-x-x--x-|-x-x-x-x-x-x-x-x-x-x-x-x-x-x-x-x---|
|-7-7-7-7-7-7-7-7-7-7-7-7-7-7-7S=9-|-7-7-7-7-7-7-7-7-7-7-7-7-7-7-7-7---|
|----------------------------------|-----------------------------------|
|
| 
|----------------------------------|-----------------------------------|
|----------------------------------|-----------------------------------|
|----------------------------------|-----------------------------------|
|-7-7-7-7-7-7-7-7-7-7-7-7-7-7-7--7-|-6-6-6-6-6-6-6-6-6-6-6-6-6-6-6-6---|
|-7-7-7-7-7-7-7-7-7-7-7-7-7-7-7--7-|-6-6-6-6-6-6-6-6-6-6-6-6-6-6-6-6---|
|-7-7-7-7-7-7-7-7-7-7-7-7-7-7-7--7-|-6-6-6-6-6-6-6-6-6-6-6-6-6-6-6-6---|



|---------------------------------|
|---------------------------------|
|-7-7-7-7-7-7-7-7-7-7-7-7-7-7-7-7-|
|-x-x-x-x-x-x-x-x-x-x-x-x-x-x-x-x-|
|-5-5-5-5-5-5-5-5-5-5-5-5-5-5-5-5-|
|---------------------------------|
|
| 
|---------------------------------|
|---------------------------------|
|---------------------------------|
|-5-5-5-5-5-5-5-5-5-5-5-5-5-5-5-5-|
|-5-5-5-5-5-5-5-5-5-5-5-5-5-5-5-5-|
|-5-5-5-5-5-5-5-5-5-5-5-5-5-5-5-5-|


   
|---------------------------------------------------|
|---------------------------------------------------|
|-15-15-15-15-15-15-15-15-15-15-15-15-15-15-15-15---|
|--x--x--x--x--x--x--x--x--x--x--x--x--x--x--x--x---|
|-13-13-13-13-13-13-13-13-13-13-13-13-13-13-13-13---|
|---------------------------------------------------|
|
|  PM------------------------------------------|
|
|---------------------------------------------------|
|---------------------------------------------------|
|---------------------------------------------------|
|--5--5--5--5--5--5--5--5--5--5--5--5--5--5--5--5---|
|--5--5--5--5--5--5--5--5--5--5--5--5--5--5--5--5---|
|--5--5--5--5--5--5--5--5--5--5--5--5--5--5--5--5---|


  Gtr I
|----------------------0-(0)---------0-------|
|-^3-(3)-(3)-3---------------3-(3)-----3---3-|
|-^2-(2)-(2)-2-2-(2)-------------------------|
|-^0-(0)-(0)-0---------------------------0---|
|--------------------0-------------0---------|
|--------------------------------------------|
|
|  >
|  
|--------------------------------------------|
|--------------------------------------------|
|--7---------------------(7)-----------------|
|--7---------------------(7)-----------------|
|--5---------------------(5)-----------------|
|--------------------------------------------|


  
|----------------------0-(0)---------0---------|
|-------------^3-(3)---------3-(3)-----3---3---|
|-----------2-^2-(2)---------------------2-----|
|-0-(0)-(0)---^0-(0)---------------------------|
|-4-(4)-(4)----------0-------------0-----------|
|----------------------------------------------|
|
| 
|----------------------------------------------|
|----------------------------------------------|
|----------------------------------------------|
|----------------------------------------------|
|----------------------------------------------|
|----------------------------------------------|


   
|------------------------------------------------------|
|----------------------------------------------3-------|
|-^2-(2)-(2)-(2)-(2)-(2)-(2)-(2)-(2)-(2)-(2)-2---2---2-|
|-^0-(0)-(0)-(0)-(0)-(0)-(0)-(0)-(0)-(0)-(0)-------0---|
|-^2-(2)-(2)-(2)-(2)-(2)-(2)-(2)-(2)-(2)-(2)-----------|
|------------------------------------------------------|
|
|  
|------------------------------------------------------|
|------------------------------------------------------|
|------------------------------------------------------|
|------------------------------------------------------|
|------------------------------------------------------|
|------------------------------------------------------|



|-------------------------------------------------------|
|-3-(3)-(3)-(3)-(3)-(3)-(3)-(3)-(3)-(3)-(3)---3---------|
|-2-(2)-(2)-(2)-(2)-(2)-(2)-(2)-(2)-(2)-(2)-2---2---2---|
|-0-(0)-(0)-(0)-(0)-(0)-(0)-(0)-(0)-(0)-(0)-------0-----|
|-1-(1)-(1)-(1)-(1)-(1)-(1)-(1)-(1)-(1)-(1)-------------|
|-------------------------------------------------------|
|
| 
|-------------------------------------------------------|
|-------------------------------------------------------|
|-------------------------------------------------------|
|-------------------------------------------------------|
|-------------------------------------------------------|
|-------------------------------------------------------|



|------------------------------0--(0)--------------0--------------|
|-^3-(3)-(3)---3-----------------------3-(3)-----------3-------3--|
|-^2-(2)-(2)---2---2--(2)-----------------------------------------|
|-^0-(0)-(0)---0-------------------------------------------0------|
|--------------------------0-------------------0------------------|
|-----------------------------------------------------------------|
|
| Gtr V
|
|-------------------------14-(14)-----------------15-(15)-14-(14)-|
|-----------------15-(15)-----------------------------------------|
|-16-14---------------------------12--14--------------------------|
|--------12--(12)------------------------12--(12)-----------------|
|-----------------------------------------------------------------|
|-----------------------------------------------------------------|



|------------------------------0--(0)--------------0----------------|
|-----------------^3--(3)--------------3-(3)-----------3-------3----|
|--------------2--^2--(2)----------------------------------2--------|
|--0-(0)-(0)------^0--(0)-------------------------------------------|
|--4-(4)-(4)---------------0-------------------0--------------------|
|-------------------------------------------------------------------|
|
|  
|-------------------------14-(14)-----------------15-(15)-14-(14)---|
|-----------------15-(15)-------------------------------------------|
|-16-14---------------------------12--14----------------------------|
|--------12--(12)------------------------12--(12)-------------------|
|-------------------------------------------------------------------|
|-------------------------------------------------------------------|


 
|--------------------------------------------------------------------|
|-----------------------------------------------------3--------------|
|-^2-(2)-(2)--(2)-(2)--(2)-(2)--(2)-(2)-(2)-(2)---2-------2-------2--|
|-^0-(0)-(0)--(0)-(0)--(0)-(0)--(0)-(0)-(0)-(0)---------------0------|
|-^2-(2)-(2)--(2)-(2)--(2)-(2)--(2)-(2)-(2)-(2)----------------------|
|--------------------------------------------------------------------|
|
| 
|--------------------------14--(14)------------------15-(15)-14-(14)-|
|-----------------15--(15)-------------------------------------------|
|-16-14-----------------------------12--14---------------------------|
|--------12--(12)---------------------------12--(12)-----------------|
|--------------------------------------------------------------------|
|--------------------------------------------------------------------|


   
|-------------------------------------------------------------------|
|-^-3--(3)--(3)--(3)--(3)--(3)--(3)--(3)--(3)--(3)--(3)-------------|
|-^-2--(2)--(2)--(2)--(2)--(2)--(2)--(2)--(2)--(2)--(2)-------------|
|-^-0--(0)--(0)--(0)--(0)--(0)--(0)--(0)--(0)--(0)--(0)-------------|
|-^-1--(1)--(1)--(1)--(1)--(1)--(1)--(1)--(1)--(1)--(1)-------------|
|-------------------------------------------------------------------|
|
|   
|-------------------------------------------------------------------|
|-!15-(15)-(15)-(15)-(15)-(15)-(15)-(15)-(15)-(15)-(15)-------------|
|-!14-(14)-(14)-(14)-(14)-(14)-(14)-(14)-(14)-(14)-(14)-------------|
|-!12-(12)-(12)-(12)-(12)-(12)-(12)-(12)-(12)-(12)-(12)-------------|
|-------------------------------------------------------------------|
|-------------------------------------------------------------------|


  Gtrs III, IV

|---------------------------------|-----------------------------------|
|---------------------------------|-----------------------------------|
|-7-7-7-7-7-7-7-7-7-7-7-7-7-7-7-7-|-6-6-6-6-6-6-6-6-6-6-6-6-6-6-6-6---|
|-7-7-7-7-7-7-7-7-7-7-7-7-7-7-7-7-|-6-6-6-6-6-6-6-6-6-6-6-6-6-6-6-6---|
|-5-5-5-5-5-5-5-5-5-5-5-5-5-5-5-5-|-4-4-4-4-4-4-4-4-4-4-4-4-4-4-4-4---|
|---------------------------------|-----------------------------------|


 
|---------------------------------|-----------------------------------|
|---------------------------------|-----------------------------------|
|-4-4-4-4-4-4-4-4-4-4-4-4-4-4-4-4-|-3-3-3-3-3-3-3-3-3-3-3-3-3-3-3-3---|
|-4-4-4-4-4-4-4-4-4-4-4-4-4-4-4-4-|-3-3-3-3-3-3-3-3-3-3-3-3-3-3-3-3---|
|-2-2-2-2-2-2-2-2-2-2-2-2-2-2-2-2-|-1-1-1-1-1-1-1-1-1-1-1-1-1-1-1-1---|
|---------------------------------|-----------------------------------|


  Gtr III
|-------------------------------------------------|
|-------------------------------------------------|
|--7--7--7--7--7--7--7--7--7--7--7--7--7--7--7--7-|
|--7--7--7--7--7--7--7--7--7--7--7--7--7--7--7--7-|
|--5--5--5--5--5--5--5--5--5--5--5--5--5--5--5--5-|
|-------------------------------------------------|
|
| Gtr IV
| 
|-------------------------------------------------|
|-------------------------------------------------|
|-11-11-11-11-11-11-11-11-11-11-11-11-11-11-11-11-|
|--x--x--x--x--x--x--x--x--x--x--x--x--x--x--x--x-|
|--9--9--9--9--9--9--9--9--9--9--9--9--9--9--9--9-|
|-------------------------------------------------|


 
|---------------------------------------------------|
|---------------------------------------------------|
|--6--6--6--6--6--6--6--6--6--6--6--6--6--6--6--6---|
|--6--6--6--6--6--6--6--6--6--6--6--6--6--6--6--6---|
|--4--4--4--4--4--4--4--4--4--4--4--4--4--4--4--4---|
|---------------------------------------------------|
|
|  
|---------------------------------------------------|
|---------------------------------------------------|
|-12-12-12-12-12-12-12-12-12-12-12-12-12-12-14-14---|
|--x--x--x--x--x--x--x--x--x--x--x--x--x--x--x--x---|
|-10-10-10-10-10-10-10-10-10-10-10-10-10-10-12-12---|
|---------------------------------------------------|


   
|-------------------------------------------------|
|-------------------------------------------------|
|--4--4--4--4--4--4--4--4--4--4--4--4--4--4--4--4-|
|--4--4--4--4--4--4--4--4--4--4--4--4--4--4--4--4-|
|--2--2--2--2--2--2--2--2--2--2--2--2--2--2--2--2-|
|-------------------------------------------------|
|
|  
|-------------------------------------------------|
|-------------------------------------------------|
|-11-11-11-11-11-11-11-11-11-11-11-11-11-11-11-11-|
|--x--x--x--x--x--x--x--x--x--x--x--x--x--x--x--x-|
|--9--9--9--9--9--9--9--9--9--9--9--9--9--9--9--9-|
|-------------------------------------------------|


   
|---------------------------------------------------|
|---------------------------------------------------|
|--3--3--3--3--3--3--3--3--3--3--3--3--3--3--3--3---|
|--3--3--3--3--3--3--3--3--3--3--3--3--3--3--3--3---|
|--1--1--1--1--1--1--1--1--1--1--1--1--1--1--1--1---|
|---------------------------------------------------|
|
| 
|---------------------------------------------------|
|---------------------------------------------------|
|-12-12-12-12-12-12-12-12-12-12-12-12-12-12-12-12---|
|--x--x--x--x--x--x--x--x--x--x--x--x--x--x--x--x---|
|-10-10-10-10-10-10-10-10-10-10-10-10-10-10-10-10---|
|---------------------------------------------------|


 Chorus
  Gtr III

|---------------------------------------------|
|---------------------------------------------|
|--7--7--7----7--7----7--7----7--7----7--7--7-|
|--7--7--7----7--7----7--7----7--7----7--7--7-|
|--5--5--5----5--5----5--5----5--5----5--5--5-|
|---------------------------------------------|
|
| Gtr IV
| 
|---------------------------------------------|
|---------------------------------------------|
|-11-11-11---11-11---11-11---11-11---11-11-11-|
|--x--x--x----x--x----x--x----x--x----x--x--x-|
|--9--9--9----9--9----9--9----9--9----9--9--9-|
|---------------------------------------------|


  
|-----------------------------------------------|
|-----------------------------------------------|
|--6--6--6----6--6----6--6----6--6----6--6--6---|
|--6--6--6----6--6----6--6----6--6----6--6--6---|
|--4--4--4----4--4----4--4----4--4----4--4--4---|
|-----------------------------------------------|
|
|  
|-----------------------------------------------|
|-----------------------------------------------|
|-12-12-12---12-12---12-12---12-12---12-12-12---|
|--x--x--x----x--x----x--x----x--x----x--x--x---|
|-10-10-10---10-10---10-10---10-10---10-10-10---|
|-----------------------------------------------|


   
|---------------------------------------------|
|---------------------------------------------|
|--4--4--4----4--4----4--4----4--4----4--4--4-|
|--4--4--4----4--4----4--4----4--4----4--4--4-|
|--2--2--2----2--2----2--2----2--2----2--2--2-|
|---------------------------------------------|
|
|  
|---------------------------------------------|
|---------------------------------------------|
|-11-11-11---11-11---11-11---11-11---11-11-11-|
|--x--x--x----x--x----x--x----x--x----x--x--x-|
|--9--9--9----9--9----9--9----9--9----9--9--9-|
|---------------------------------------------|


   
|-----------------------------------------------|
|-----------------------------------------------|
|--3--3--3----3--3----3--3----3--3----3--3--3---|
|--3--3--3----3--3----3--3----3--3----3--3--3---|
|--1--1--1----1--1----1--1----1--1----1--1--1---|
|-----------------------------------------------|
|
|  
|-----------------------------------------------|
|-----------------------------------------------|
|-12-12-12---12-12---12-12---12-12---12-12-12---|
|--x--x--x----x--x----x--x----x--x----x--x--x---|
|-10-10-10---10-10---10-10---10-10---10-10-10---|
|-----------------------------------------------|


  
|---------------------------------------------|
|---------------------------------------------|
|---------------------------------------------|
|--0--0--0----0--0----0--0----0--0----0--0--0-|
|--0--0--0----0--0----0--0----0--0----0--0--0-|
|--0--0--0----0--0----0--0----0--0----0--0--0-|
|
|  
|---------------------------------------------|
|---------------------------------------------|
|-11-11-11---11-11---11-11---11-11---11-11-11-|
|--x--x--x----x--x----x--x----x--x----x--x--x-|
|--9--9--9----9--9----9--9----9--9----9--9--9-|
|---------------------------------------------|


   
|-----------------------------------------------|
|-----------------------------------------------|
|-----------------------------------------------|
|--4--4--4----4--4----4--4----4--4----4--4--4---|
|--4--4--4----4--4----4--4----4--4----4--4--4---|
|--4--4--4----4--4----4--4----4--4----4--4--4---|
|
|  
|-----------------------------------------------|
|-----------------------------------------------|
|-12-12-12---12-12---12-12---12-12---12-12-12---|
|--x--x--x----x--x----x--x----x--x----x--x--x---|
|-10-10-10---10-10---10-10---10-10---10-10-10---|
|-----------------------------------------------|


   
|---------------------------------------------|
|---------------------------------------------|
|--4--4--4----4--4----4--4----4--4----4--4--4-|
|--4--4--4----4--4----4--4----4--4----4--4--4-|
|--2--2--2----2--2----2--2----2--2----2--2--2-|
|---------------------------------------------|
|
|  
|---------------------------------------------|
|---------------------------------------------|
|-11-11-11---11-11---11-11---11-11---11-11-11-|
|--x--x--x----x--x----x--x----x--x----x--x--x-|
|--9--9--9----9--9----9--9----9--9----9--9--9-|
|---------------------------------------------|


   
|-----------------------------------------------|
|-----------------------------------------------|
|--3--3--3----3--3----3--3----3--3----3--3--3---|
|--3--3--3----3--3----3--3----3--3----3--3--3---|
|--1--1--1----1--1----1--1----1--1----1--1--1---|
|-----------------------------------------------|
|
|  
|-----------------------------------------------|
|-----------------------------------------------|
|-12-12-12---12-12---12-12---12-12---12-12-12---|
|--x--x--x----x--x----x--x----x--x----x--x--x---|
|-10-10-10---10-10---10-10---10-10---10-10-10---|
|-----------------------------------------------|


 Outro
|-------------------------------------------------|
|-------------------------------------------------|
|--4--4--4--4--4--4--4--4--4--4--4--4--4--4--4--4-|
|--4--4--4--4--4--4--4--4--4--4--4--4--4--4--4--4-|
|--2--2--2--2--2--2--2--2--2--2--2--2--2--2--2--2-|
|-------------------------------------------------|
|
| 
|-------------------------------------------------|
|-------------------------------------------------|
|-11-11-11-11-11-11-11-11-11-11-11-11-11-11-11-11-|
|--x--x--x--x--x--x--x--x--x--x--x--x--x--x--x--x-|
|--9--9--9--9--9--9--9--9--9--9--9--9--9--9--9--9-|
|-------------------------------------------------|



|---------------------------------------------------|
|---------------------------------------------------|
|--3--3--3--3--3--3--3--3--3--3--3--3--3--3--3--3---|
|--3--3--3--3--3--3--3--3--3--3--3--3--3--3--3--3---|
|--1--1--1--1--1--1--1--1--1--1--1--1--1--1--1--1---|
|---------------------------------------------------|
|
|  
|---------------------------------------------------|
|---------------------------------------------------|
|-12-12-12-12-12-12-12-12-12-12-12-12-12-12-12-12---|
|--x--x--x--x--x--x--x--x--x--x--x--x--x--x--x--x---|
|-10-10-10-10-10-10-10-10-10-10-10-10-10-10-10-10---|
|---------------------------------------------------|


  Gtr I
|-------------------------------------------------------------|
|---------------------<7>-(<7>)---------------------<7>-(<7>)-|
|-----------<7>-(<7>)---------------------<5>-(<5>)-----------|
|-9S7-0-(0)---------------------5S7-0-(0)---------------------|
|-------------------------------------------------------------|
|-------------------------------------------------------------|
|
|
| Gtr III
|
|-------------------------------------------------------------|
|-------------------------------------------------------------|
|-7---------(7)-----------------------------------------------|
|-7---------(7)-----------------------------------------------|
|-5---------(5)-----------------------------------------------|
|-------------------------------------------------------------|


   
|------------------|
|------------------|
|-^<7>----(<7>)----|
|-^<7>----(<7>)----|
|------------------|
|------------------|
|
| 
|------------------|
|------------------|
|--(7)-----(7)-----|
|--(7)-----(7)-----|
|--(5)-----(5)-----|
|------------------|




----------------------------------------------------------------------------




Legend
----------------
 h   - hammer-on
 p   - pull-off
 b   - bend
 pb  - pre-bend
 r   - bend release 
 /\  - slide 
 s   - legato slide
 S   - shift slide
 - natural harmonic
[n]  - artificial harmonic
n(n) - tapped harmonic
 ~   - vibrato
 tr  - trill
 T   - tap
 TP  - trem. picking
 PM  - palm muting
\n/  - tremolo bar dip; n = amount to dip
 \n  - tremolo bar down
 n/  - tremolo bar up
/n\  - tremolo bar inverted dip
 =   - hold bend; also acts as connecting device for hammers/pulls
 <> - volume swell (louder/softer)
 x   - on rhythm slash represents muted slash
 o   - on rhythm slash represents single note slash
Tap to rate this tab
 
# A B C D E F G H I J K L M N O P Q R S T U V W X Y Z