Guitaretab - guitar tabs
Song name
# A B C D E F G H I J K L M N O P Q R S T U V W X Y Z

Taking Back Sunday - Sink Into Me tab

Song: Sink Into Me
Artist: Taking Back Sunday
Album: New Again
Tabbed by: benjwashere (phoenxb@gmail.com)

K so this is what I think the song sounds like for the lead guitar. Pretty simple song. 
me know if thereís any mistakes or anything I need to add. Cheers. Hope this helps. :)


Intro:

e-------------------------------------------------------------|
B-------------------------------------------------------------|
G--8-1010---------------------8-1010-------13-1515------------|
D----------(x2)-9-1111----------------(x2)-----------9-1111---|
A--6--8-8*--------------(x2)- 6--8-8*------11-1313*-----------|
E---------------7--9-9*------------------------------7--9-9*--|

*Can omit those last set of notes of the 3 of each bit if you want.

Verse 1:

e------------------------|
B------------------------|
G--18-------16-----------|
D-----(x16)----(x16)-----|
A--16-------14-----------|
E------------------------|

Pre-Chorus 1:
(Youíre all I see, sink into me)
Same as Intro

Pre-Chorus 2:
(Sink Into Me, Sink In Sink In)

e------------------------|
B------------------------|
G--16-------18-----------|
D-----(x16)----(x16)-----|
A--14-------16-----------|
E------------------------|

Chorus:
[ Tab from: http://www.guitaretab.com/t/taking-back-sunday/183771.html ]
e----------------------------------------------|
B----------------------------------------------|
G--13-------15-------16------15------18--------|
D-----(x16)----(x16)----(x8)----(x8)----(x16)--|
A--11-------13-------14------13------16--------|
E----------------------------------------------|x2

Verse 2:
No Electric Guitar

Pre-Chorus 1:
Play intro riff once, then when the singing starts play this slightly modified bit of 
intro:

e-------------------------------------------------------------|
B-------------------------------------------------------------|
G--8-1010---------------------8-1010-8-10--13-1515------------|
D----------(x2)-9-1111-------------------------------9-1111---|
A--6--8-8*--------------(x2)- 6--8-8-6ó8---11-1313*-----------|
E---------------7--9-9*------------------------------7--9-9*--|

Pre-Chorus 2

Chorus

Post-Chorus:

e----------------------------------------------------------------|
B----------------------------------------------------------------|
G--4------8------888---------------------------------------------|
D----(x6)---(x4)-----(last bit three notes played fast)----------|
A--2------6------666---------------------------------------------|
E----------------------------------------------------------------|

Bridge:

e--------------------|
B--------------------|
G--------------------|
D--------------------|
A--4-(palm mute*)----|
E--------------------|

*all the way til before he sings the last word of bridge.

Intro & Pre-Chorus (play the same thing anyway)

Pre-chorus 2

Chorus

Ending:
Same as Post-Chorus.

And thatís it! Hope itís ok. Enjoy! :)
Related for Sink Into Me tab