Song name
# A B C D E F G H I J K L M N O P Q R S T U V W X Y Z

Taking Back Sunday - Everything Must Go tab

This is such a good song, and probably the best taking back sunday album 
since 'tell all your friends', so i definetly am letting you know to check it out.
This song is absolutely played in this tuning, im pretty sure i got everything
covered here, maybe alittle off but i would say its 99% correct. Any questions
or corrections, ajzajac@live.com.

please rate!
thanks!

Song: Everything Must Go
Album: New Again

Tuning: Dropped D, then everything down a half step.


Intro/Chorus (Guitar 1)

Eb |---------------------------------------------------------------|
Bb |---------------------------------------------------------------|
Gb |--13--------11-------6-------14-------16-------18--------------|
Db |--x--(x16)--x--(x8)--x-(x8)--x--(x8)--x--(x8)--x--(x4)--0~-----|
Ab |--11--------9--------4-------12-------14-------16-------0~-----|
C# |--------------------------------------------------------0~-----|


Intro/Chorus (Guitar 2)

Eb |---------------------------------------------------------------|
Bb |---------------------------------------------------------------|
Gb |---------------------------------------------------------------|
Db |--7--------0--------4---------0--------------------------------|
Ab |--7-(x16)--0-(x16)--4-(x16)---0-(x16)--------------------------|
C# |--7--------0--------4---------0--------------------------------|


Intro/Chorus (Guitar 2) Sometimes changes it up a bit 

Eb |-----------------|
Bb |-----------------|
Gb |-----------------|
Db |-7--0--4--2/7--0-|
Ab |-7--0--4--2/7--0-|
C# |-7--0--4--2/7--0-|


The rift from the chorus

Eb |-----------------------------------------------------------|
Bb |----77777777-99999-10-10-10--12h14-12h14-12h14-------------|
Gb |-----------------------------------------------------------|
Db |-----------------------------------------------------------|
Ab |-----------------------------------------------------------|
C# |-----------------------------------------------------------|



Verse (Guitar 1)

Eb |--------------------------------------0-------------2p0--------|
Bb |--------2--------------2----------2-----2---2---2-------2------|
Gb |----2-----2---2----2-----2---2------2-----2-------2-------2----|
Db |--2---2-----2----4---4-----4-----------------------------------|
Ab |---------------------------------------------------------------|
C# |--------------------------------0-------------0----------------|

Verse (Guitar 2)

Eb |-----------------------------------------|
Bb |--2-------2-------2----------------------|
Gb |--2-(x8)--2-(x8)--2-(x8)-----------------|
Db |--2-------4-------0----------------------|
Ab |-----------------------------------------|
C# |-----------------------------------------|
Palm Muted....................................

Every other verse he strums this chord at the end.

Eb |---5~---|
Bb |---2~---|
Gb |---2~---|
Db |---0~---|
Ab |--------|
C# |--------|



Bridge, he uses digital delay and some reverb here

Eb |---------------------------------------------2-2----5-5----------2-2-2--|
Bb |-----2--2-----2--2-----2--2-----2-2-----2-------------------2-2--2-2-2--|
Gb |---2--------2--------2--------2-------2----2------2-------2------2-2-2--|
Db |-2--------2--------4--------4-------0----0------0-------0---------------|
Ab |------------------------------------------------------------------------|
C# |------------------------------------------------------------------------|


I don't have the end solo, but its just him tapping and doing hammer ons and pull off's
with digital delay and reverb on, its easy to either figure out or make somethin else up
that fits.

please rate!!
Tap to rate this tab
# A B C D E F G H I J K L M N O P Q R S T U V W X Y Z