Song name
# A B C D E F G H I J K L M N O P Q R S T U V W X Y Z

Taking Back Sunday - Where My Mouth Is tab

Help us improve GuitareTab! Take a short survey!
Song: "Where My Mouth Is"

Band: Taking Back Sunday

Album: New Again

This tab could very well be completely wrong. I really would like someone to expand on 
very basic tab. I am making this tab in the hopes of getting someone else started on 
this song.

Intro-

|------------------------------------------------------------------|
|------------------------------------------------------------------|
|--2-2-2-2-2-2-2-2-2-2-2-2-2-2-2-2---------------------------------|
|--2-2-2-2-2-2-2-2-2-2-2-2-2-2-2-2-2-2-2-2-2-2-2-2-2-2-2-2-2-2-2-2-|
|--0-0-0-0-0-0-0-0-0-0-0-0-0-0-0-0-2-2-2-2-2-2-2-2-2-2-2-2-2-2-2-2-|
|----------------------------------0-0-0-0-0-0-0-0-0-0-0-0-0-0-0-0-|

Verse-

|------------------------------------------------------------------|
|------------------------------------------------------------------|
|--2-2-2-2-2-2-2-2-2-2-2-2-2-2-2-2---------------------------------|
|--2-2-2-2-2-2-2-2-2-2-2-2-2-2-2-2-2-2-2-2-2-2-2-2-2-2-2-2-2-2-2-2-|
|--0-0-0-0-0-0-0-0-0-0-0-0-0-0-0-0-2-2-2-2-2-2-2-2-2-2-2-2-2-2-2-2-|
|----------------------------------0-0-0-0-0-0-0-0-0-0-0-0-0-0-0-0-|

Chorus-

|------------------------------------------------------------------|
|------------------------------------------------------------------|
|--7-7-7-7-7-7-7-7-------------------------------------------------|
|--7-7-7-7-7-7-7-7-7-7-7-7-7-7-7-7-5-5-5-5-5-5-5-5-7-7-7-7-7-7-7-7-|
|--5-5-5-5-5-5-5-5-7-7-7-7-7-7-7-7-5-5-5-5-5-5-5-5-7-7-7-7-7-7-7-7-|
|------------------5-5-5-5-5-5-5-5-3-3-3-3-3-3-3-3-5-5-5-5-5-5-5-5-|

End On

|-----
|-----
|--7~~
|--7~~
|--5~~
|-----


Intro     X1
Verse     X4
Chorus    X1
Verse     X4
Chorus    X2
Bridge    X1 (Play verse)
Chorus    Until End

Don't be too tough on this. I just want to see this tabbed out and I thought this might 
someone get started. I am not very good at tabbing so have at it. Thanks. Comment with corrections.
Related for Where My Mouth Is tab