Song name
# A B C D E F G H I J K L M N O P Q R S T U V W X Y Z

Taking Back Sunday - Catholic Knees tab

-------------------------------------------------------------------------------
                        Catholic Knees - Taking Back Sunday
-------------------------------------------------------------------------------
Tabbed by: Zakk Roberts
Email: midkay@gmail.com

Tuning: Standard


This is one of my favorite songs from "New Again". Here's the main riff:

Intro:
E|------------------------------------------|
B|------------------------------------------|
G|------------------------------------------|
D|------------------------------------------|
A|-1-1-1-------------2-2-2-2-2------[x2]----|
E|-------1-1-2-2-2-2------------------------|

Then it changes to power chords:
E|------------------------------------------|
B|------------------------------------------|
G|-3-3-3-------------4-4-4-4-4--------------|
D|-3-3-3-3-3-4-4-4-4-4-4-4-4-4--------------|
A|-1-1-1-3-3-4-4-4-4-2-2-2-2-2------[x2]----|
E|-------1-1-2-2-2-2------------------------|

... and it's the same power chords for the chorus. Really simple.
Hopefully someone can figure out the verses. Thanks and enjoy!
Tap to rate this tab
# A B C D E F G H I J K L M N O P Q R S T U V W X Y Z