Guitaretab - guitar tabs
Song name
# A B C D E F G H I J K L M N O P Q R S T U V W X Y Z

Taking Back Sunday - Carpathia tab

Carpathia
Taking Back Sunday
New Again (2009)

Tabbed by Alex Barrera
Alexishxc1337@aol.com

Tuning: Half Step Down

The chords may be off, since Fazzi plays some pretty unique stuff, but this sounds 
right to me.

Intro/main riff:
eb|-4-4-4-4---------------------|
Bb|-5-5-5-4--2-2-0--------------|
Gb|-6-6-6-6--2-2-2-1--1-1-1-1---|
Db|-6-6-6-6--2-2-2-2--4-4-4-4---|
Ab|-4-4-4-4------0-0--2-2-2-2---|
Eb|-----------------------------|

eb|-4-4-4-4--------------------3-3-3-3---|
Bb|-5-5-5-4--2-2-0-------------3-3-3-3---|
Gb|-6-6-6-6--2-2-2-1--1-1-1-1--5-5-5-5---|
Db|-6-6-6-6--2-2-2-2--4-4-4-4--5-5-5-5---|
Ab|-4-4-4-4------0-0--2-2-2-2--3-3-3-3---|
Eb|--------------------------------------|

Chorus:

Use these chords, the rhythm is pretty straightforward:
eb|-----------------|
Bb|----2------------|
Gb|-6--2-----4--5---|
Db|-6--2--4--4--5---|
Ab|-4--0--4--2--3---|
Eb|-------2---------|

Bass Solo, transcribed for guitar:
eb|--------------------------------------|
Bb|--------------------------------------|
Gb|------4-------------------------------|
Db|----6---6-4-6-------------------------|
Ab|-4~---------------7-6-----------------|
Eb|--------------5~------7-4~-4-7-4-8~---|
[ Tab from: http://www.guitaretab.com/t/taking-back-sunday/188034.html ]
2nd Verse Lead:
(rhythm remains the same)
eb|------------------------|
Bb|--9--9--9----9--9--9----|
Gb|--11-11-11---11-11-11---|
Db|------------------------|
Ab|------------------------|
Eb|------------------------|

Lead Chords:
eb|--------------|
Bb|--9---7---7---|
Gb|-11---9---8---|
Db|--------------|
Ab|--------------|
Eb|--------------|

Still trying to figure out the little fills that come out of either speaker channel, any 
with those would be greatly appreciated.

eb|-----------------|
Bb|----2------------|
Gb|-6--2-----4--5---|
Db|-6--2--4--4--5---|
Ab|-4--0--4--2--3---|
Eb|-------2---------|

Chorus variation:
eb|--------------|
Bb|-------2------|
Gb|-6--7--2------|
Db|-6--7--2--4---|
Ab|-4--5--0--4---|
Eb|----------2---|

Bridge Chords:
eb|-0~---0~---2~---0~--|
Bb|-2~---2~---2~---2~--|
Gb|-2~---2~---2~---2~--|
Db|-2~---0~---2~---0~--|
Ab|-0~---0~--------0~--|
Eb|------2~--------2~--|

eb|-3-3-3-3---|
Bb|-3-3-3-3---|
Gb|-5-5-5-5---|
Db|-5-5-5-5---|
Ab|-3-3-3-3---|
Eb|-----------|

Repeat Chorus:

eb|-----------------|
Bb|----2------------|
Gb|-6--2-----4--5---|
Db|-6--2--4--4--5---|
Ab|-4--0--4--2--3---|
Eb|-------2---------|

eb|--------------|
Bb|-------2------|
Gb|-6--7--2------|
Db|-6--7--2--4---|
Ab|-4--5--0--4---|
Eb|----------2---|

End on:

eb|-------|
Bb|--2~---|
Gb|--2~---|
Db|--2~---|
Ab|--0~---|
Eb|-------|

Again, there are some fills in the last chorus that I canít quite get, if you could help 
would be appreciated.
Related for Carpathia tab