Song name
# A B C D E F G H I J K L M N O P Q R S T U V W X Y Z

Taking Back Sunday - Summer Man tab

Help us improve GuitareTab! Take a short survey!
Tuning: Half step down
Tabbed by: ArTuRocK
This is just the intro of the song, when i got the whole song i'll upload it

----------------------5---------|
---------------------5----------|
-----11---9---6--4--7-----------| x2 YEAH!!!
---0----0---0---0-0-------------|
--------------------------------|
--------------------------------|


------------------------------------------
------------------------------------------
-----7-7-7-7------------------------------ x2
-----7-7-7-7--7-7-7-7--4-4-4-2-4-4-4-4----
-----5-5-5-5--7-7-7-7--4-4-4-2-4-4-4-4----
--------------5-5-5-5--2-2-2-0-2-2-2-2----

----------------------5---------|
---------------------5----------|
-----11---9---6--4--7-----------| x2
---0----0---0---0-0-------------|
--------------------------------|
--------------------------------|

Related for Summer Man tab