Guitaretab - guitar tabs
Song name
# A B C D E F G H I J K L M N O P Q R S T U V W X Y Z

Taking Back Sunday - Summer Man tab

Summer, Man - Taking Back Sunday
Tuning: Drop C# (Drop D then half a step down for each string)

I only tabbed out for 1 guitar as this song is predominately one guitar with the 
second guitar only slightly featured throughout the song

This song took awhile to tab, especially the bridge so please rate and comment :) thanks

I. Intro
D#|--------------------------------5--|
A#|-----7------5-----------------5----| x2
F#|------------------6---4-----7------|
C#|--0------0------0---0-----0--------|
G#|-----------------------------------|
C#|-----------------------------------|

D#|-----------------------------------|
A#|-----------------------------------| x2
F#|-----------------------------------|
C#|--0-0-0-7-7-7-7-4-4-4-4-2-4-4-4-4--|
G#|--0-0-0-7-7-7-7-4-4-4-4-2-4-4-4-4--|
C#|--0-0-0-7-7-7-7-4-4-4-4-2-4-4-4-4--|

D#|--------------------------------5--|
A#|-----7------5-----------------5----| x2
F#|------------------6---4-----7------|
C#|--0------0------0---0-----0--------|
G#|-----------------------------------|
C#|-----------------------------------|

II. Pre-Verse
Bass Only for first 2 bars
(Then)
D#|-----------------------------------|
A#|-----------------------------------|
F#|-----------------------------------|
C#|--7-7-7-----------------4-4-4-4-4--|
G#|--5-5-5-7-7-7-7-4-4-4-4-2-2-2-2-2--|
C#|--------7-7-7-7-4-4-4-4------------|
     : : : : : : : : : : : : : : : :
D#|-----------------------------------|
A#|-----------------------------------|
F#|-----------------------------------|
C#|--7-7-7----------------------------|
G#|--5-5-5-7-7-7-7-4-4-4-4-2-4-4-4-4--|
C#|--------7-7-7-7-4-4-4-4-2-4-4-4-4--|
     : : : : : : : : : : : : : : : :

III. Verse
D#|-----------------------------------|    |------|
A#|-----------------------------------| x3 |------|
F#|-----------------------------------|    |--7~--|
C#|-----------------------------------|    |------|
G#|--0-0-0-7-4-0-0-2-4-0-0-0-0-0-0-0--|    |--5~--|
C#|--0-0-0-7-4-0-0-2-4-0-0-0-0-0-0-0--|    |------|
       : :     : :     : : : : : : :

IV. Chorus
D#|-------------------------------------------------------------------|
A#|-------------------------------------------------------------------|
F#|--7-7-7-7-7-7-7-7-7-7-7-7-7-7-7-7-9-9-9-9-9-9-9-9-9-9-9-9-9-9-9-9--|
C#|-------------------------------------------------------------------|
G#|--5-5-5-5-5-5-5-5-5-5-5-5-5-5-5-5-7-7-7-7-7-7-7-7-7-7-7-7-7-7-7-7--|
C#|-------------------------------------------------------------------|

D#|-------------------------------------------------------------------|
A#|-------------------------------------------------------------------|
F#|-1111111111111111111111111111111112121212121212121212121212121212--|
C#|-------------------------------------------------------------------|
G#|--9-9-9-9-9-9-9-9-9-9-9-9-9-9-9-910101010101010101010101010101010--|
C#|-------------------------------------------------------------------|

V. Repeat Verse x4

VI. Pre-Chorus
D#|--------------5------------------------------------------5-------------------|
A#|------7---5--------------5-7-5--7-5-7--5-7-------7---5-------------5-7--5-7--|
F#|----7---7---7----7-4-7-7-----------------------7---7---7----7-4--7-----------|
C#|--7------------------------------------------7-------------------------------|
G#|-----------------------------------------------------------------------------|
C#|-----------------------------------------------------------------------------|

VII. Chorus
D#|-------------------------------------------------------------------|
A#|-------------------------------------------------------------------|
F#|--7-7-7-7-7-7-7-7-7-7-7-7-7-7-7-7-9-9-9-9-9-9-9-9-9-9-9-9-9-9-9-9--|
C#|-------------------------------------------------------------------|
G#|--5-5-5-5-5-5-5-5-5-5-5-5-5-5-5-5-7-7-7-7-7-7-7-7-7-7-7-7-7-7-7-7--|
C#|-------------------------------------------------------------------|

D#|-------------------------------------------------------------------|
A#|-------------------------------------------------------------------|
F#|-1111111111111111111111111111111112121212121212121212121414141414--|
C#|-------------------------------------------------------------------|
G#|--9-9-9-9-9-9-9-9-9-9-9-9-9-9-9-910101010101010101010101212121212--|
C#|-------------------------------------------------------------------|
[ Tab from: http://www.guitaretab.com/t/taking-back-sunday/189941.html ]
D#|-------------------------------------------------------------------|
A#|-------------------------------------------------------------------|
F#|--7-7-7-7-7-7-7-7-7-7-7-7-7-7-7-7-9-9-9-9-9-9-9-9-9-9-9-9-9-9-9-9--|
C#|-------------------------------------------------------------------|
G#|--5-5-5-5-5-5-5-5-5-5-5-5-5-5-5-5-7-7-7-7-7-7-7-7-7-7-7-7-7-7-7-7--|
C#|-------------------------------------------------------------------|

D#|-------------------------------------------------------------------|
A#|----------------------------------9-11-------------9-11------------|
F#|-11111111111111111111111111111111------12~~~~~~~~-------12~~~~~~~--|
C#|-------------------------------------------------------------------|
G#|--9-9-9-9-9-9-9-9-9-9-9-9-9-9-9-9----------------------------------|
C#|-------------------------------------------------------------------|

VIII. Post-Chorus
D#|-------------------------------------------------------------------|
A#|-------------------------------------------------------------------|
F#|--------------------------4~~--------------------------------------|
C#|--0~------7~------4~------4~~-----------0~-----7~-----4~~----------|
G#|--0~------7~------4~------2~~-----------0~-----7~-----4~~----------|
C#|--0~------7~------4~--------------------0~-----7~-----4~~----------|

IX. Bridge
D#|-------------------------------------------------------------------|
A#|-------------------------------------------------------------------| x2
F#|-------------------------------------------------------------------|
C#|--7-7-7-----------------4-4-4-4-4-7-7-7----------------------------|
G#|--5-5-5-7-7-7-7-4-4-4-4-2-2-2-2-2-5-5-5-7-7-7-7-4-4-4-4-4-4-4-4-4--|
C#|--------7-7-7-7-4-4-4-4-----------------7-7-7-7-4-4-4-4-4-4-4-4-4--|

D#|--------------5-----------------------------------------5------------------------------|
A#|------7---5--------------7-5--7-5--7-5--7-5-----7---5---------------5------------------|
F#|----7---7---7----7-4-6-7----------------------7---7---7----7-4--6-7---6--7-4--6--------|
C#|--7-----------------------------------------7-----------------------------------7------|
G#|----------------------------------------------------------------------------------6----|
C#|------------------------------------------------------------------------------------8--|

D#|-----------------0--------0---------------------2--|
A#|--2-------2------2-2---3------------2--------3--3--|
F#|--2-0-2-0--------2---2--------0-2-0----0-2-0----2--|
C#|--2--------------2------------------------------0--|
G#|--0------------------------------------------------|
C#|-------------0-------------------------------------|

X. Chorus
D#|-------------------------------------------------------------------|
A#|-------------------------------------------------------------------|
F#|--7-7-7-7-7-7-7-7-7-7-7-7-7-7-7-7-9-9-9-9-9-9-9-9-9-9-9-9-9-9-9-9--|
C#|-------------------------------------------------------------------|
G#|--5-5-5-5-5-5-5-5-5-5-5-5-5-5-5-5-7-7-7-7-7-7-7-7-7-7-7-7-7-7-7-7--|
C#|-------------------------------------------------------------------|

D#|-------------------------------------------------------------------|
A#|-------------------------------------------------------------------|
F#|-1111111111111111111111111111111112121212121212121212121414141414--|
C#|-------------------------------------------------------------------|
G#|--9-9-9-9-9-9-9-9-9-9-9-9-9-9-9-910101010101010101010101212121212--|
C#|-------------------------------------------------------------------|

D#|-------------------------------------------------------------------|
A#|-------------------------------------------------------------------|
F#|--7-7-7-7-7-7-7-7-7-7-7-7-7-7-7-7-9-9-9-9-9-9-9-9-9-9-9-9-9-9-9-9--|
C#|-------------------------------------------------------------------|
G#|--5-5-5-5-5-5-5-5-5-5-5-5-5-5-5-5-7-7-7-7-7-7-7-7-7-7-7-7-7-7-7-7--|
C#|-------------------------------------------------------------------|

D#|-------------------------------------------------------------------|
A#|----------------------------------9-11-------------9-11------------|
F#|-11111111111111111111111111111111------12~~~~~~~~-------12~~~~~~~--|
C#|-------------------------------------------------------------------|
G#|--9-9-9-9-9-9-9-9-9-9-9-9-9-9-9-9----------------------------------|
C#|-------------------------------------------------------------------|

XI. Outro
D#|----------------------------------------------------------------------------------------5--|
A#|--------------------------------------------------------------------7---5-------------5----|
F#|----------------------------------------------------------------------------6---4---7------|
C#|--0-0-0-0-0-0-0-0-2-0-0-0-4-0-0-0-7-7-7-7-7-7-7-7-7-7-7-7-7-7-7-7-0---0---0---0---0--------|
G#|--0-0-0-0-0-0-0-0-2-0-0-0-4-0-0-0-7-7-7-7-7-7-7-7-7-7-7-7-7-7-7-7--------------------------|
C#|--0-0-0-0-0-0-0-0-2-0-0-0-4-0-0-0-7-7-7-7-7-7-7-7-7-7-7-7-7-7-7-7--------------------------|
Related for Summer Man tab
Advertisement will be closed in 10 seconds