Song name
# A B C D E F G H I J K L M N O P Q R S T U V W X Y Z

Taking Back Sunday - Where My Mouth Is tab

Where My Mouth Is - Taking Back Sunday
Tabbed by: T. After Death L.
Email: Knox021@hotmail.com

For exact strumming and picking patterns listen to the song.
Enjoy!

Standard Tuning

Guitar 1

Intro/1st Verse

e|--------------------------------------------|
B|--------------------------------------------|
G|---4-----2---------------4---------2----2---|
D|---4-----2----X2--then---4----5----2----2---|
A|---2-----0---------------2----5----0----0---|
E|------------------------------3-------------|


e|---------------------------------------------------|
B|---------------------------------------------------|
G|--------4---------4---------4----2----2------------|
D|---5----4----5----4----5----4----2----2-sustained--|
A|---5----2----5----2----5----2----0----0------------|
E|---3---------3---------3---------------------------|

Chorus

e|------------------------------------|
B|------------------------------------|
G|---7----4----2---------2------------|
D|---7----4----2----5----2-let ring---|
A|---5----2----0----5----0------------|
E|------------------3-----------------|

2nd Verse

e|----------------------------------------------------------------|
B|----------------------------------------------------------------|
G|----4----2----4-----2---------4---------4---------4----2----2---|
D|----4----2----4--5--2----5----4----5----4----5----4----2----2---|
A|----2----0----2--5--0----5----2----5----2----5----2----0----0---|
E|-----------------3-------3---------3---------3------------------|
last chord sustained

2nd Chorus

e|------------------------------------------------------------------|
B|------------------------------------------------------------------|
G|---7----4----2-------------7----7---------4---------4---------2---|
D|---7----4----2----5--------7----7----5----4----5----4----5----2---|
A|---5----2----0----5--------5----5----5----2----5----2----5----0---|
E|------------------3------------------3---------3---------3--------|

Bridge

e|---------------------------------------------------|
B|---------------------------------------------------|
G|--------4---------4---------4----2----2------------|
D|---5----4----5----4----5----4----2----2------------|
A|---5----2----5----2----5----2----0----0------------|
E|---3---------3---------3---------------------------|
Palm Mute

3rd Chorus

e|------------------------------------------|
B|------------------------------------------|
G|---7----4----2---------4----2---------2---|
D|---7----4----2----5----4----2----5----2---|
A|---5----2----0----5----2----0----5----0---|
E|------------------3--------------3--------|

e|--------------------------------------------------------|
B|--------------------------------------------------------|
G|---7----7---------4---------4---------2----4------------|
D|---7----7----5----4----5----4----5----2----4-let ring---|
A|---5----5----5----2----5----2----5----0----2------------|
E|-------------3---------3---------3----------------------|


Guitar 2

Verse
e|------------------------------------------------------------------------------|
B|------------------------------------------------------------------------------|
G|---11---11---11---11-9----9----9------13---13---13---13---11---11---11---11---|
D|-9----9----9----9------12---12---12-11---11---11---11---11---11---11---11-----|
A|------------------------------------------------------------------------------|
E|------------------------------------------------------------------------------|
  

e|-------------------------------------------------------------------------|
B|-------------------------------------------------------------------------|
G|---11---11---11---11-9----9----9------13---13---13---13---6---6---6---6--|
D|-9----9----9----9------12---12---12-11---11---11---11---7---7---7---7----|
A|-------------------------------------------------------------------------|
E|-------------------------------------------------------------------------|
   
e|---------------------------------------------------|
B|---7--------5--7--5------7----5--7----5------------|
G|---7--------7--7--7--x2--7----7--7----7------------|
D|--------------------------------------7--sustained-|
A|--------------------------------------0------------|
E|---------------------------------------------------|
Palm Muted

Pre chorus
e|-----------------5-2-2---2--|
B|--5/3-3-5/3-3-0-3------2----|
G|----------------------------|
D|----------------------------|
A|----------------------------|
E|----------------------------|

Chorus
e|-------5-2-------5-2-------5/9-5-------5/9-5-12-12-12-------9-------5-2/7-|
B|-2-3-5-----2-3-5-----2-3-5-------2-3-5----------------10-10---2-3-5-------|
G|--------------------------------------------------------------------------|
D|--------------------------------------------------------------------------|
A|--------------------------------------------------------------------------|
E|--------------------------------------------------------------------------|

e|--------2---------0--|
B|------2---2-----2----|
G|--2-2-------2-2------|
D|---------------------| Not sure on this bit
A|---------------------|
E|---------------------|

Verse
e|------------------------------------------------------------------------------|
B|------------------------------------------------------------------------------|
G|---11---11---11---11-9----9----9------13---13---13---13---11---11---11---11---|
D|-9----9----9----9------12---12---12-11---11---11---11---11---11---11---11-----|
A|------------------------------------------------------------------------------|
E|------------------------------------------------------------------------------|
  e|-------------------------------------------------------------------------|
B|-------------------------------------------------------------------------|
G|---11---11---11---11-9----9----9------13---13---13---13---6---6---6---6--|
D|-9----9----9----9------12---12---12-11---11---11---11---7---7---7---7----|
A|-------------------------------------------------------------------------|
E|-------------------------------------------------------------------------|

e|-------------------------------------------------5---5---5---5------|
B|---7--------5--7--5------7----5--7----5------------7---7---7---7-x2-|
G|---7--------7--7--7--x2--7----7--7----7-----------------------------|
D|---7--------7--7--7------7----7--7----7--sustained------------------|
A|--------------------------------------0-----------------------------|
E|--------------------------------------------------------------------|

Chrous
e|-------5-2-------5-2-------5/9-5-------5/9-5-12-12-12-------9-------5-2/7-|
B|-2-3-5-----2-3-5-----2-3-5-------2-3-5----------------10-10---2-3-5-------|
G|--------------------------------------------------------------------------|
D|--------------------------------------------------------------------------|
A|--------------------------------------------------------------------------|
E|--------------------------------------------------------------------------|

e|--222222222222-0000----------9999-5555-77777777-9999-5555--------------------|
B|--------------------33333333------------------------------33333333-55555555--|
G|-----------------------------------------------------------------------------|
D|-----------------------------------------------------------------------------|
A|-----------------------------------------------------------------------------|
E|-----------------------------------------------------------------------------|


3rd chorus is the same sort of deal but i cant be bothered to tab it 
this has taken me long enough! lol anyway, i hope i got it most of it
right.


Tap to rate this tab
# A B C D E F G H I J K L M N O P Q R S T U V W X Y Z