Song name
# A B C D E F G H I J K L M N O P Q R S T U V W X Y Z

Taking Back Sunday - This Photograph Is Proof Acoustic tab

-------------------------------------------------------------------------------
			     This Photograph Is Proof - Taking Back Sunday
-------------------------------------------------------------------------------
Tabbed by: daggerinmyback
Email: peterroberts666@hotmail.com

Tuning: EADGBe

Ok it's not the way they play it acoustically but it's nice, you could always pluck 
the chords and slow it down :P Also I didn't tab out the rhythm

Intro / Verse
e|-2-2-2-2-0-0-0-0-2-2-2-2-0-0-0-0-2-2-2-2-2-2-2-2-2-2-2-2-2-2-2-2-|
B|-3-3-3-3-3-3-3-3-3-3-3-3-3-3-3-3-2-2-2-2-3-3-3-3-2-2-2-2-3-3-3-3-|
G|-2-2-2-2-2-2-2-2-2-2-2-2-2-2-2-2-4-4-4-4-4-4-4-4-4-4-4-4-4-4-4-4-|
D|-0-0-0-0-0-0-0-0-0-0-0-0-0-0-0-0-4-4-4-4-4-4-4-4-4-4-4-4-4-4-4-4-|
A|---------------------------------2-2-2-2-2-2-2-2-2-2-2-2-2-2-2-2-|
E|-----------------------------------------------------------------|

Pre-chorus

e|-0-0-0-0-0-0-0-0-0-2-2-2-0-0-0-0-0-0-0-0-0-0-0-0-|
B|-2-2-2-3-3-3-5-5-5-0-0-0-2-2-2-3-3-3-2-2-2-3-3-3-|
G|-2-2-2-2-2-2-2-2-2-2-2-2-2-2-2-2-2-2-2-2-2-2-2-2-|
D|-0-0-0-0-0-0-0-0-0-0-0-0-0-0-0-0-0-0-0-0-0-0-0-0-|
A|-------------------------------------------------|
E|-------------------------------------------------|

Chorus

e|-2-2-2-2-2-2-2-2-2-2-2-2-2-2-2-2-2-2-2-2-2-2-2-2-0-0-0-0-0-0-0-0-|
B|-3-3-3-3-3-3-3-3-3-3-3-3-3-3-3-3-3-3-3-3-3-3-3-3-1-1-1-1-1-1-1-1-|
G|-2-2-2-2-2-2-2-2-0-0-0-0-0-0-0-0-4-4-4-4-4-4-4-4-0-0-0-0-0-0-0-0-|
D|-0-0-0-0-0-0-0-0-0-0-0-0-0-0-0-0-4-4-4-4-4-4-4-4-2-2-2-2-2-2-2-2-|
A|---------------------------------2-2-2-2-2-2-2-2-3-3-3-3-3-3-3-3-|
E|-----------------------------------------------------------------|

Bridge Part 1

e|-2-2-2-2-2-2-2-2-2-2-2-2-2-2-2-2-2-2-2-2-2-2-2-2-|
B|-3-3-3-3-3-3-3-3-3-3-3-3-3-3-3-3-3-3-3-3-3-3-3-3-|
G|-2-2-2-2-2-2-2-2-2-2-2-2-2-2-2-2-2-2-2-2-2-2-2-2-|
D|-0-0-0-0-0-0-0-0-0-0-0-0-0-0-0-0-0-0-0-0-0-0-0-0-|
A|-------------------------------------------------|
E|-------------------------------------------------|

Bridge Part 2
e|-0-0-0-0-0-0-0-0-0-0-0-0-0-0-0-0-0-0-0-0-0-0-0-0-|
B|-3-3-3-3-3-3-3-3-3-3-3-3-3-3-3-3-3-3-3-3-3-0-0-0-|
G|-2-2-2-2-2-2-2-2-2-2-2-2-2-2-2-2-2-2-2-2-2-1-1-1-|
D|-0-0-0-2-2-2-4-4-4-5-5-5-0-0-0-2-2-2-4-4-4-2-2-2-|
A|-0-0-0-0-0-0-0-0-0-0-0-0-0-0-0-0-0-0-0-0-0-2-2-2-|
E|-------------------------------------------0-0-0-|

Order

Intro / Verse x 4
Pre-chorus x 2
Chorus x 2
Intro / Verse x 3
Pre-chorus x 2
Chorus x 2
Bridge Part 1 x 2
Bridge Part 2 x 4
Chorus x 4

************************************

| /   slide up
| \   slide down
| h   hammer-on
| p   pull-off
| ~   vibrato
| +   harmonic
| x   Mute note
| b   Bend
| pb  Pre-bend
| br  Bend release
| pbr Pre-bend release
| brb Bend release bend

************************************
Tap to rate this tab
# A B C D E F G H I J K L M N O P Q R S T U V W X Y Z