Taking Back Sunday - Best Places To Be A Mom tab

Band: Taking Back Sunday
Song: Best Places To Be A Mom
Album: Taking Back Sunday (self titled)
Tabbed By: Matt Florio; myspace.com/mattflorio2
Email: Shempashland@yahoo.com

Hey this is a tab for a song ' Best Places To Be A Mom ' by TBS!
This is one of the new songs release from the reunited Taking Back Sunday lineup. 
Enjoy... I tabbed based on the leaked demo that just came out!

Tuning: Half Step Down



Intro/Verse
Guitar 1
e|---0-0-0-0-0-0-0-0--|--0-0-0-0-0-0-0-0-0000-|
b|--5-5-5-5-4-4-4-4---|-5-5-5-5-4-4-4-4--7777-|
g|--------------------|-----------------------|
d|--------------------|-----------------------|
a|--------------------|-----------------------|
e|--------------------|-----------------------|

Gutiar 2
e|--0~---------0~-0~--------|
b|--0~---------0~-0~-~------|
g|--9~---------9~-9~-9~-9~--|
d|--9~---------9~-9~-9~-9~--|
a|--7~---------7~-6~-7~-6~--|
e|--0~---------0~-----------|
"Though a lot about the morning.."

Pre Chorus
Guitar 1
e|--12-11-----12-11-14~--|
b|-------9-12------------|
g|-----------------------|
d|-----------------------|
a|-----------------------|
e|-----------------------|

Guitar 2
*next eight A chords could 
 possibly be B (x24400) Chords
e|--0-000-0000*0*000-0000---------|
b|--0-000-0000-0-000-0000---------|
g|--2-222-2222-2-222-2222---------|
d|--2-222-2222-2-222-2222---------|
a|--0-000-0000-0-000-0000---------|
e|--------------------------------|

Chorus
Guitar 1 
(doesnt seem to be a real lead part so try this)
e|--0---0---0---0---0--|
b|--0---0---0---0---0--|
g|--1---1---6---4---2--|
d|--2---1---6---4---2--|
a|--2---2---4---2---0--|
e|--0---0--------------|

Guitar 2
e|--0---0---0---0---0--|
b|--0---0---0---0---0--|
g|--9---9---6---4---2--|
d|--9---9---6---4---2--|
a|--7---6---4---2---0--|
e|--0---0--------------|
"Am I just like..."

Verse

Guitar 2 Palm Mutes the chords this time

Breakdown         
Both Guitars 
                  end on
e|----------------|-----|
b|----------------|-----|
g|--2--4-----2----|-----|
d|--2--4--6--2--4-|--2~-|
a|--0--2--6--0--4-|--2~-|
e|--------4-----2-|--0~-|

Bridge
Guitar 1
e|-----12----12----12----12----11----11----14----14--|
b|-1212--1212--1212--1212--1212--1212--1212--1212----|
g|---------------------------------------------------|
d|---------------------------------------------------|
a|---------------------------------------------------|
e|---------------------------------------------------|

Guitar 2
e|--0---0---0---0---0--000000000000--|
b|-5-5-4-4-5-5-4-4-5-5-555544447777--|
g|-----------------------------------|
d|-----------------------------------|
a|-----------------------------------|
e|-----------------------------------|

Chorus 

Breakdown as Outro
Tap to rate this tab
 
# A B C D E F G H I J K L M N O P Q R S T U V W X Y Z