Song name
# A B C D E F G H I J K L M N O P Q R S T U V W X Y Z

Taking Back Sunday - Theres No I In Team tab

Artist - TBS (Taking Back Sunday)
Song - There's No "I" in Team
Album - Tell All Your Friends
Tabber - Nick Orvik
Profile - horizon aflame

First of all, this isn't a hundred percent, but it's more complete than the other one's, 
and  it has the right song title, not "there is no I in team".  This also includes 
ideas for what to play if you want to add a little spice to it.  So enjoy,

Drop D

Guitar One

Verse/Intro Play this Riff until chorus

e|-----------------------------------|
B|-7-6---7-6---7-6---7-6---7-6-----6-|
G|-----7-----7-----7-----7-----7-7---|
D|-----------------------------------|
A|-----------------------------------|
D|-----------------------------------|

Chorus (play this whole thing twice)

e|---------------------------------------------------------|
B|---------------------------------------------------------|
G|---------------------------------------------------------|
D|-9~----9-9~----9-9~--9--9/12-7~----7-7~----7-7~--7--7/11-|
A|-9~----9-9~----9-9~--9--9/12-7~----7-7~----7-7~--7--7/11-|
D|-9~----9-9~----9-9~--9--9/12-7~----7-7~----7-7~--7--7/11-|

e|-----------------------------------------------------------------|
B|-----------------------------------------------------------------|
G|-----------------------------------------------------------------|
D|-3-3-3-3-3-3-3-3-3-3-3-3-3-3-3-3-3-3-3-3-3-3-3-3-3-3-3-3-3-3-3-3-|
A|-3-3-3-3-3-3-3-3-3-3-3-3-3-3-3-3-3-3-3-3-3-3-3-3-3-3-3-3-3-3-3-3-|
D|-3-3-3-3-3-3-3-3-3-3-3-3-3-3-3-3-3-3-3-3-3-3-3-3-3-3-3-3-3-3-3-3-|

Verse/Intro riff until chorus again

Chorus again

Bridge (play this eight time) (goes like: -1e&a2e&a3e&a4e-)

e|-----------------------------|
B|-----------------------------|
G|-----------------------------|
D|-0-0-0-0-0-0-0-0-0-0-0-0-0-0-|
A|-0-0-0-0-0-0-0-0-0-0-0-0-0-0-|
D|-0-0-0-0-0-0-0-0-0-0-0-0-0-0-|

Chorus one last time

Outro play this twice

e|-----------------------------------------------------------------|
B|-----------------------------------------------------------------|
G|-----------------------------------------------------------------|
D|-9-9-9-9-9-9-9-9-9-9-9-9-9-9-9-9-7-7-7-7-7-7-7-7-7-7-7-7-7-7-7-7-|
A|-9-9-9-9-9-9-9-9-9-9-9-9-9-9-9-9-7-7-7-7-7-7-7-7-7-7-7-7-7-7-7-7-|
D|-9-9-9-9-9-9-9-9-9-9-9-9-9-9-9-9-7-7-7-7-7-7-7-7-7-7-7-7-7-7-7-7-|

End on:

e|--------------------------|
B|--------------------------|
G|--------------------------|
D|-9~-----------------------|
A|-9~-----------------------|
D|-9~-----------------------|

============================================================================

Guitar two:

Not much different than guitar one, but i have an idea of how you can spice it up a bit, 
so here goes:

Drop D

Verse/Intro Play this Riff until chorus

e|-----------------------------------|
B|-7-6---7-6---7-6---7-6---7-6-----6-|
G|-----7-----7-----7-----7-----7-7---|
D|-----------------------------------|
A|-----------------------------------|
D|-----------------------------------|

Chorus (you can play with guitar one but i like to play this)

e|-10-9----10-9----10-9----10-9----10-10-10-10-|
B|------10------10------10------10-------------|
G|---------------------------------------------|
D|---------------------------------------------|
A|---------------------------------------------|
D|---------------------------------------------|

Verse again

Chorus again

Bridge (play this eight time) (goes like: -1e&a2e&a3e&a4e-) (same as guitar one)

e|-----------------------------|
B|-----------------------------|
G|-----------------------------|
D|-0-0-0-0-0-0-0-0-0-0-0-0-0-0-|
A|-0-0-0-0-0-0-0-0-0-0-0-0-0-0-|
D|-0-0-0-0-0-0-0-0-0-0-0-0-0-0-|

Chorus one last time

Outro (i'd play the same riff as one the chorus cos i dont know what else is played, cos 
its really hard to make out the background notes)

============================================================================

There it is, please rate and comment, and if you have any corrections please tell them. :]

-Nick
Tap to rate this tab
 
# A B C D E F G H I J K L M N O P Q R S T U V W X Y Z