Song name
# A B C D E F G H I J K L M N O P Q R S T U V W X Y Z

Taking Back Sunday - Faith When I Let You Down tab

This is how they play it. play it with the song. not a very difficult song. ive provided
rhythm and lead guitars. REMEMBER TO TUNE HALF STEP DOWN. taking back sunday does this
with a lot of there songs. this tab however mostly showing you the exact notes and 
chords they play but u need to be a smart guitar player to know how the lead and rhythm guitars
are played together. its not very hard.

Tuning- Half Step Down

Intro
Lead Guitar (Fast strum pattern, just listen to it)
---------------------------------------------------------------|
---------------------------------------------------------------|
---14---14--14--14--14--14--14--14--14--14--14--14-------------|
---X-----X---X---X---X---X---X---X---X---X---X---X-------------|
---12---12--12--12--12--12--12--12--12--12--12--12-------------|
---------------------------------------------------------------|


For the rest of the tab i will do my best to match up what the lead and rhythm play at 
the same time.

Lead Guitar (Chorus)
-----------------------------------------------------------------------------------|
-----------------------------------------------------------------------------------|
---14--------------------------9-9-1111---11--------------------------9-9-9-9------|
----X-x12----------------------X-X-X-X----X-x12-----------------------X-X-X-X------|
---12--------------------------7-7-9-9----9---------------------------7-7-7-7------|
-----------------------------------------------------------------------------------|
("ohhh, ohhh, ohhh")


Rhythm Guitar (Chorus)
-----------------------------------------------------------------------------------|
-----------------------------------------------------------------------------------|
----------------------7-7-7-7--------------------------------7-7-7-7---------------|
---4-4-4-4--5-5-5-5--7-7-7-7--7-7-7-7----4-4-4-4--5-5-5-5--7-7-7-7--7-7-7-7--------|
---4-4-4-4--5-5-5-5--5-5-5-5--7-7-7-7----4-4-4-4--5-5-5-5--5-5-5-5--7-7-7-7--------|
---2-2-2-2--3-3-3-3--5-5-5-5--5-5-5-5----2-2-2-2--3-3-3-3--5-5-5-5--5-5-5-5--------|



Verse 1 (Its played with a keyboard in the song but heres guitar chords if u wanna play it)
---------------------------------------|
---------------------------------------|
---7~---6~---4~---6~-------------------|
---7~---7~---4~---7~-------------------|
---5~---4~---2~---4~-------------------|
---------------------------------------|


Verse 1 (This is the lead guitar that comes in half way through the verse)
-------------------------------------------------------------------------------|
---7-7-7-7-7-7-7-7-7-7-7-7-7-7-7-7-7-7-7-7-7-7-7-7-7-7-7-7-7-10-10-10-10-------|
----7-7-7-7-7-7-7-7-7-7-7-7-7-7-7-7-7-7-7-7-7-7-7-7-7-7-7-7-7--9--9--9--9------|
-------------------------------------------------------------------------------|
-------------------------------------------------------------------------------|
-------------------------------------------------------------------------------|



Chorus- Same ^^



Verse 2
---------------------------------------------------------------------------------|
---7-7-7-7-7-7-7-7---------------------------------------------------------------|
----7-7-7-7-7-7-7-7--------------------4-4-4-4-4-4-4-4---------------------------|
----------------------4-4-4-4-4-4-4-4--4-4-4-4-4-4-4-4--7-7-7-7-7-7-7-7----------|
----------------------4-4-4-4-4-4-4-4--2-2-2-2-2-2-2-2--7-7-7-7-7-7-7-7----------|
----------------------2-2-2-2-2-2-2-2--------------------5-5-5-5-5-5-5-5---------|

----------------------------------------------------------------------------|
----------------------------------------------------------------------------|
---7-7-7-7-7-7-7-7--------------------4-4-4-4-4-4-4-4-----------------------|
---7-7-7-7-7-7-7-7--4-4-4-4-4-4-4-4--4-4-4-4-4-4-4-4--7-7-7-7-7-7-7-7-------|
---5-5-5-5-5-5-5-5--4-4-4-4-4-4-4-4--2-2-2-2-2-2-2-2--7-7-7-7-7-7-7-7-------|
---------------------2-2-2-2-2-2-2-2-------------------5-5-5-5-5-5-5-5------|


Chorus- Same ^^


Bridge (Rhythm)
------------------------|
------------------------|
------------------------|
---4~---5~---9~---------|
---4~---5~---9~---------|
---2~---3~---7~---------|


Bridge (Lead) --(this may be the only part im not exact about, just mess with it a little)
---------------9---------------------|
------------10--10-------------------|
---6--7--9----------9--7--6----------|    x4
-------------------------------------|
-------------------------------------|
-------------------------------------|



Ending/ Chorus- Same ^^


If you have any questions please leave a comment, but nothing here is wrong. Just listen
to the song and try to play along with them if you doubt yourself, JUST REMEMBER TO
TUNE DOWN HALF A STEP
Thank you. Enjoy. And cant wait for the new album
Tap to rate this tab
 
# A B C D E F G H I J K L M N O P Q R S T U V W X Y Z