Song name
# A B C D E F G H I J K L M N O P Q R S T U V W X Y Z

Taking Back Sunday - This Is All Now tab

Well There Is A New Song I Tabbed this One But Here Some Things You should Know Before
Trying To Play :

**This Song I bilive Is Orignly In  Drop D Half Step Down But In 
This Tab I Tabb This In Standart.**

**I Use Capo TO Do It Without capo Just Move all Half Tune Up
If It Say 2 on the G String Then move It To 3 On The G String :) **

**This Is A mixdown Of Chords And Tabs I just Find It Very Accurate To Play Like That**

One Of the Best Song Of New TBS New Album

The Version With Capo ( Capo On 1st) :

Intro+Verse:

e|----------------------------------------|
B|------3-----3------3-----0-----0--------|
G|----------------------------------------|
D|----2-----2----2------------------------| X3
A|----------------------------3------3----|
E|----------------------------------------|

Then:
e|-------------------------------|
B|-------------------------------|
G|-------2----2-----2-----2---2--|
D|----0-----0----0-----0----0----|
A|-------------------------------|
E|-------------------------------|

pre Chours(0:40) :

e|--------------------------------------------------------|
B|--------------------------------------------------------|
G|--------------------------------------------------------|
D|------5----5---5---5-----5---5----5------5-5-5-5-5-5-5--|
A|-----------------------------------------5-5-5-5-5-5-5--|
E|----3----3---3---3-----3---3----3--------3-3-3-3-3-3-3--|

Chours Well I Just Do This Chords:

Bm , G , D.


        Bm          G            D
This Is  All i ever Ask From You....The Only Thing You Couldnt Do..

Bm      G               D
Tell Me The Whole Truth..

then repet Verse

then chours again..

Bridge:

i use these cords:

Em , G , D.


     Em           G       D
Are we....You Stand......stay..  do it 3 times

Then

    Em                     D
ohh Selling You Cold Hallow Faith...Remember!!

e|----0----------0------------------------------------|
B|------2-----3-------3-----------2h3----let it ring--|
G|------------------4----2--4-------------------------|
D|------------------------------4---------------------|
A|----------------------------------------------------|
E|----------------------------------------------------|

Then Do The Chords For The Chours Till The End Of The Song.
Tap to rate this tab
 
# A B C D E F G H I J K L M N O P Q R S T U V W X Y Z