Song name
# A B C D E F G H I J K L M N O P Q R S T U V W X Y Z

Taking Back Sunday - Call Me In The Morning tab

(1st tabs by the way) Here are two ways you could play it, I'm not sure if either one is 
correct, but they sound pretty close.

e|----2-------2--|
B|------2------2-|
D|---------------| (Back to beginning)
G|---------------| (3x)
A|--------2-2----|
E|2-2------------|

OR

e|--------------------------------------|
B|----3-------3-------3-------3------3--|
G|------0-------0-------0-------0------0|
D|--0-------0-------0-------0------0----|
A|------------------------3-------------|
E|3-------3-------3---------------3-----|
Tap to rate this tab
 
# A B C D E F G H I J K L M N O P Q R S T U V W X Y Z