Song name
# A B C D E F G H I J K L M N O P Q R S T U V W X Y Z

Taking Back Sunday - This Is All Now tab

-----------------------------------------------------------------------------
			    THIS IS ALL NOW - Taking Back Sunday
-----------------------------------------------------------------------------
Tabbed by: Billy Agures
Email: billythekiddd6@yahoo.com

Tuning: Half Step Down


Intro/Verse:

e|---------------------|--------------------------------------|
B|---------------------|--------------------------------------|
G|----9----9---9-------|--------------------------------------|
D|--7---7---7---7--7---|----9---9---9---9---9-----------------|
A|----------------5--5-|--7---7---7---7---7-------------------|
E|---------------------|--------------------------------------|
                      x3                          every 4th do this


Pre-Chorus: "I am owed this now I am owed this now..."
E|-------------------------------------------------|
B|-------------------------------------------------|
G|-------------------------------------------------|
D|---7---------------------------------------------|
A|---7---------------------------------------------|
E|---5---------------------------------------------|
                                                x30ish


Chorus:
E|-------------------------------------------------|
B|-------------------------------------------------|
G|-------------------------------------------------|
D|-11111111-77777777-22222222-2222222--------------|
A|-11111111-77777777-22222222-2222222--------------|
E|-99999999-55555555-00000000-0000000--------------|
During the first chorus, let the last open E ring out, second chorus play the full set


Verse II:

Play same as above for one full measure, then play:
e|-------------------|--------------------------------------|
B|-------------------|--10/---------------------------------|
G|----9----9---9-----|--------------------------------------|
D|--7---7---7---7----|--------------------------------------|
A|----------------5--|--------------------------------------|
E|-------------------|--------------------------------------|
                    x3

Then go back to normal pattern, but the 10 (which isn't actually a guitar) continues. 
Play Pre-chorus, Chorus, then:


Bridge:
E|-----------------------------------------------|
B|-----------------------------------------------|
G|-----------------------------------------------|
D|-444444444-777777777-22222222-2222222----------|
A|-444444444-777777777-22222222-2222222----------|
E|-222222222-555555555-00000000-0000000----------|
                                                x3

E|-------------------------------------------------|
B|-------------------------------------------------|
G|-------------------------------------------------|
D|-44444444-44444444-77777777-77777777-------------|
A|-44444444-44444444-77777777-77777777-------------|
E|-22222222-22222222-55555555-55555555-------------|


Piano Part:

E|---------------------------------------------------|
B|---------------------------------------------------|
G|-10-13--8-11--6-9--4-7--2/4/9~---------------------|
D|---------------------------------------------------|
A|---------------------------------------------------|
E|---------------------------------------------------|


Something like this twice:
E|------------------------------------------------|
B|-9-----10---------------------------------------|
G|-9-----9-----9----------------------------------|
D|-------------9----------------------------------|
A|------------------------------------------------|
E|------------------------------------------------|

 then play the chorus a few more times and thats the end!
Tap to rate this tab
 
# A B C D E F G H I J K L M N O P Q R S T U V W X Y Z