Song name
# A B C D E F G H I J K L M N O P Q R S T U V W X Y Z

Taking Back Sunday - You Got Me tab

Tabbed by Caslin

e----6---6---------6----6------3-----3-------1-------|
B--------------------------------------------------4b|
G-5----5------8-8----8------1-----1-----1-1-----1----|
D----------------------------------------------------|
A----------------------------------------------------|
E----------------------------------------------------|

e----6---6---------6----6------3-----3--1~-----------|
B----------------------------------------------------|
G-5----5------8-8----8------1-----1------------------|
D----------------------------------------------------|
A----------------------------------------------------|
E----------------------------------------------------|
Tap to rate this tab
# A B C D E F G H I J K L M N O P Q R S T U V W X Y Z