Song name
# A B C D E F G H I J K L M N O P Q R S T U V W X Y Z

Taking Back Sunday - It Doesnt Feel A Thing Like Falling tab

-------------------------------------------------------------------------------
     It Doesn't Feel A Thing Like Falling - Taking Back Sunday Intro
-------------------------------------------------------------------------------
Tabbed by:
Email:

Tuning:D#G#C#F#A#D#

Palm Muted x 4 
|---------------------------------------------------------------------------|
|---------------------------------------------------------------------------|
|---------------------------------------------------------------------------|
|---------------------------------------------------------------------------|
|-----6--------7-----------------------7--6---------------------------------|
|--0-----5--0-----7--0--5p0--7p0--5p0--------7------------------------------|
Not Palm Muted
|---------------------------------------------------------------------------|
|---------------------------------------------------------------------------|
|---------------------------------------------------------------------------|
|---------------------------------------------------------------------------|
|-----6--------7-----------------------7--6---------------------------------|
|--0-----5--0-----7--0--5p0--7p0--5p0--------7------------------------------|


************************************

| /   slide up
| \   slide down
| h   hammer-on
| p   pull-off
| ~   vibrato
| +   harmonic
| x   Mute note
| b   Bend
| pb  Pre-bend
| br  Bend release
| pbr Pre-bend release
| brb Bend release bend

************************************
Tap to rate this tab
 
# A B C D E F G H I J K L M N O P Q R S T U V W X Y Z