Song name
# A B C D E F G H I J K L M N O P Q R S T U V W X Y Z

Taking Back Sunday - Sad Savior tab

Sad Savior
Taking Back Sunday
Taking Back Sunday (2011)

Tabbed by: Alex Barrera
Email: alexbarrera22@aol.com

Tuning: Half Step Down

Relatively easy, fun song on a great album.

Verse 1:
eb|-------------------------------------------------------|
Bb|-------5-------------6------------5--------------------|
Gb|-----5---5---------5---5--------5---5--------5---5-----|
Db|---5-------5-----3-------5----5-------5----5---5---5---|
Ab|-3-------------3------------3------------3-------------|
Eb|-------------------------------------------------------|

eb|-------------------------------------------------------|
Bb|-------5-------------6------------1------------1-------|
Gb|-----5---5---------5---5--------2---2--------2---2-----|
Db|---5-------5-----3-------5----2-------2----2-------2---|
Ab|-3-------------3------------0------------0-------------|
Eb|-------------------------------------------------------|

eb|-------------------------------------------------------|
Bb|-------5-------------6------------5--------------------|
Gb|-----5---5---------5---5--------5---5----------5---5---|
Db|---5-------5-----3-------5----5-------5----3h5---5-----|
Ab|-3-------------3------------3------------3-------------|
Eb|-------------------------------------------------------|

eb|-------------------0~--|
Bb|-------------0---0-----|
Gb|-------1---1---1-------|
Db|-----2---2-------------|
Ab|---2-------------------|
Eb|-0---------------------|

Chorus:

Recording:
F5 C5 G5 Am

Acoustically, John plays:

FMaj CMaj G Am

eb|-1--------0-------------------0---|
Bb|-1--------1---------1---------1---|
Gb|-2--------0---------0---------2---|
Db|-3--------2---------0---------2---|
Ab|-3--------3---------2---------0---|
Eb|-1------------------3-------------|
  F Maj    C Maj       G          Am


Verse 2 is the same as verse 1, and a little fill comes into the right channel, but it 
requires the second guitar to be tuned to Drop Cb.

eb|----------------------|
Bb|----------------------|
Gb|----------------------|
Db|----------------------|
Ab|-3------------3-------|
Db|---7-5---5-7----7-0---|

Chorus remains the same, then this:

Bridge:

John:
eb|------------------|
Bb|------------------|
Gb|-----5~-----------|
Db|-5-7-----5-7------|
Ab|-------------5~---|
Eb|------------------|

Eddie/Adam:
eb|---------------|
Bb|---------------|
Gb|-7-------------|
Db|-7------7------|
Ab|-5-X6---7------|
Eb|--------5-X6---|

Both:

E9? Not sure of the exact name.

eb|-7-7-xx-7-7-xx---|
Bb|-0-0-xx-0-0-xx---|
Gb|-7-7-xx-7-7-xx---|
Db|-6-6-xx-6-6-xx---|
Ab|-7-7-xx-7-7-xx---|
Eb|-----xx-----xx---|X2

Guitar 1:
eb|---------------------|
Bb|-------------1-------|
Gb|-5-----------2-------|
Db|-5-----3-----2-------|
Ab|-3-X4--3-----0-X12---|
Eb|-------1-X4----------|

Guitar 2:
eb|---------------------|
Bb|---------------------|
Gb|-5-----------9-------|
Db|-5-----3-----x-------|
Ab|-3-X4--3-----7-X12---|
Eb|-------1-X4----------|

This again:

eb|-7-7-xx-7-7-xx---|
Bb|-0-0-xx-0-0-xx---|
Gb|-7-7-xx-7-7-xx---|
Db|-6-6-xx-6-6-xx---|
Ab|-7-7-xx-7-7-xx---|
Eb|-----xx-----xx---|X2



Repeat chorus again, and end on upstroke of this:

eb|-----|
Bb|-5---|
Gb|-5---|
Db|-5---|
Ab|-3---|
Eb|-----|



Verse 1
Chorus
Verse 2
Chorus
Bridge
Chorus
End

Enjoy!
Tap to rate this tab
# A B C D E F G H I J K L M N O P Q R S T U V W X Y Z