Song name
# A B C D E F G H I J K L M N O P Q R S T U V W X Y Z

Taking Back Sunday - You Got Me tab

eb|--------------------------------------------------------|
Bb|-----12----12-------12----12----9----9------------------|
Gb|---------------------------------------------11----9b10-|
Db|--11----11----14-14----14----11---11---11-11----11------|
Ab|--------------------------------------------------------|
Eb|--------------------------------------------------------|

eb|-------------------------------------------|
Bb|-----12----12-------12----12----9----9-----|
Gb|---------------------------------------11~-|
Db|--11----11----14-14----14----11---11-------|
Ab|-------------------------------------------|
Eb|-------------------------------------------|

eb|--------------------------------------------------------------|
Bb|--------12----12-------12----12-------9----9------------------|
Gb|---------------------------------------------------11----9b10-|
Db|--11-11----11----14-14----14----11-11---11---11-11----11------|
Ab|--------------------------------------------------------------|
Eb|--------------------------------------------------------------|

eb|--------------------------------------------------------|
Bb|-----12----12-------12----12----9----9------------------|
Gb|---------------------------------------------11----9b10-|
Db|--11----11----14-14----14----11---11---11-11----11------|
Ab|--------------------------------------------------------|
Eb|--------------------------------------------------------|

eb|--------------------------------|
Bb|-----9----9---------------------|
Gb|------------------11----9/11----|
Db|--11---11---11-11----11---------|
Ab|--------------------------------|
Eb|--------------------------------|
Tap to rate this tab
# A B C D E F G H I J K L M N O P Q R S T U V W X Y Z