Song name
# A B C D E F G H I J K L M N O P Q R S T U V W X Y Z

Taking Back Sunday - Carpathia tab

So I know some of this sounds weird but im 98% sure it's correct. I've based this tab 
off of a bunch of different acoustic videos they did when New Again first came out.

http://www.youtube.com/watch?v=74f68D7EF2s



1/2 step down

verse

Eb----------------------------------------------------|
Bb--5--5--4 ------------------------------------------|
Gb--6--6--6--4----6--6--4-------4--4--4--4------------|
Db--6--6--6--6----6--6--6--6----4--4--4--4------------|
Ab--4--4--4--4----0--0--0--0--------------------------|
Eb-------------------------------4--4--4--4-----------|

Eb-------------------------------------------------------|
Bb--5--5--4 ---------------------------------------------|
Gb--6--6--6--4----6--6--4-------4--4--4--4--5--5--5--5---|
Db--6--6--6--6----6--6--6--6----4--4--4--4--6--6--6--6---|
Ab--4--4--4--4----0--0--0--0-----------------------------|
Eb-------------------------------4--4--4--4--4--4--4--4--|

thats the entire verse, another guitar comes on top of that which is basically the same 
chords only held out

Chorus

Eb-----------------------------------------------------------|
Bb------ ----------------------------------------------------|
Gb--6---------------------------------4-------5--------------|
Db--6-(x 16)----2--2--2---4--4--4--4---4-(x16)--5--(x16)-----|
Ab--4----------0--0--0---4--4--4--4---2-------3--------------|
Eb-----------------------2--2--2--2--------------------------|


then it goes back into the verse which is the same as above (with the exception of the 
little lead parts)

Second Chorus

Eb-----------------------------------------------------------|
Bb------ ----------------------------------------------------|
Gb--6---------------------------------4-------5--------------|
Db--6-(x 16)----2--2--2---4--4--4--4---4-(x16)--5--(x16)-----|
Ab--4----------0--0--0---4--4--4--4---2-------3--------------|
Eb-----------------------2--2--2--2--------------------------|

Eb----------------------|
Bb----------------------|
Gb--6-------7-----------|
Db--6-(x16)--7--(x16)---|
Ab--4-------5-----------|
Eb----------------------|

Ok now for the cool Bridge part, this is the part that sounds weird but its what he 
plays..or at least i think its what he plays...

     "man that was ages ago"

Eb------------------------------------------------------|
Bb--5--5-5-5--5--5-5-5-5---2---2-2-2--2---2-2-2-2-------|
Gb--6--6-6-6--6--6-6-6-6---2---2-2-2--2---2-2-2-2-------|
Db--7--7-7-7--7--7-7-7-7---0---0-0-0--0---0-0-0-0-------|
Ab--0--0-0-0--0--0-0-0-0--------------------------------|
Eb-------------------------2--2-2-2--2---2-2-2-2--------|


Eb--------------------------------------------|
Bb--5----2--------5---------------------------|
Gb--6----2--------6----4----5--5--5--5--------|
Db--7----0---(x3)--4----4----6--6--6--6-------|
Ab--0-------------5----2----6--6--6--6--------|
Eb--------2------------3----4--4--4--4--------|


From there they go to the chorus..and thats the whole song, minus some lead parts
make corrections if there needs to be

also sorry about the annoying spacing im not great at tabbing :-*
Tap to rate this tab
# A B C D E F G H I J K L M N O P Q R S T U V W X Y Z