Song name
# A B C D E F G H I J K L M N O P Q R S T U V W X Y Z

Taking Back Sunday - This Is All Now tab

this is my first tab so please give feedback.

Taking Back Sunday
this is all now
self titled

TUNED HALF STEP DOWN


INTRO/Verse

e----------------]---------------------------------------------------------|
b----------------]---------------------------------------------------------|
g----9-9-9-------]---------------------------------------------------------|
d------------7-7-]---- 9---9---9---9---9-----------------------------------|
a---9-9-9-----5-5]---7---7---7---7---7-------------------------------------|
E----------------]---------------------------------------------------------|
                X3                                 play this throughout verse

Pre-Chorus "I am owed this now"

e-----------------------------------------------------------------------|
b-----------------------------------------------------------------------|
g-----------------------------------------------------------------------|
d----7------------------------------------------------------------------|
a----7------------------------------------------------------------------|
E----5------------------------------------------------------------------|
        x13

Chorus
play each x8
e--------------------------------------------------------------------------|
b--------------------------------------------------------------------------|
g--6----2------------------------------------------------------------------|
d--6----2---2---2----------------------------------------------------------|
a--4----0---2---2----------------------------------------------------------|
E-----------0---0----------------------------------------------------------|

(let last note ring at end of chorus)


next verse and pre-chorus and chorus are the same as before


Bridge "Oh next time you're standing on that stage"

(Rhythm Guitar)play each chord x8

e--------------]---------------------------------------------------------|
b--------------]---------------------------------------------------------|
g--------------]---------------------------------------------------------|
d--4--7--2--2--]---4--4--7--7--------------------------------------------|
a--4--7--2--2--]---4--4--7--7--------------------------------------------|
E--2--5--0--0--]---2--2--5--5--------------------------------------------|
              x3    (play this the fourth time)


Bridge (Lead Guitar)
each chord x8

e----------------------------------------------------------------------|
b----------------------------------------------------------------------|
g--11-14--13--13----------16--18--16--16-------------------------------|
d--x--x---x---x-----------x---x---x---x--------------------------------|
a--9--12--11--11----------14--16--14--14-------------------------------|
E----------------------------------------------------------------------|

First time                Second time



e----------------------------------------------------------------------|
b----------------------------------------------------------------------|
g----16--21--16----------------------18--18--21--21--------------------|
d----x---x---x-----------------------x---x---x---x---------------------|
a----14--19--14----------------------16--16--19--19--------------------|
E----------------------------------------------------------------------|
third time                      fourth time

Piano Part

e-----------------------------------------------------------------------|
b-----------------------------------------------------------------------|
g----11-13-9-11-6-9-4-6-1-2-9~~~----------------------------------------|
d-----------------------------------------------------------------------|
a-----------------------------------------------------------------------|
E-----------------------------------------------------------------------|


the piano then plays:

e------------------------------------------------------------------------|
b------9-----10--9-------------------------------------------------------|
g------9-----9---9-------------------------------------------------------|
d----------------9-------------------------------------------------------|
a------------------------------------------------------------------------|
E------------------------------------------------------------------------|

on guitar you can just play c# A E chords instead


then play the chorus. listen for different pauses but thats pretty much it. enjoy
Tap to rate this tab
 
# A B C D E F G H I J K L M N O P Q R S T U V W X Y Z