Song name
# A B C D E F G H I J K L M N O P Q R S T U V W X Y Z

Taking Back Sunday - This Is All Now Acoustic chords

Highlighted       Show chord diagrams
This Is All Now (Acoustic)
Taking Back Sunday
Taking Back Sunday

Tabbed by Lec Segundo

Tuning: Down Half-Step (Eb Ab Db Gb Bb Eb) 

Legend:

~ - Let Ring

Chord Used:

A2       - x02200
A        - 577655
A(power) - 577xxx or x022xx
Dsus2    - xx0230
E        - 022100
E(high)  - x79997
C#m      - x46654
F#m      - 244222

Piano Riffs:

1            2            3

eb|-------|  eb|-------|  eb|-------|
Bb|---9~--|  Bb|---10~-|  Bb|-------|
Gb|--9----|  Gb|--9----|  Gb|---9~--|
Db|-------|  Db|-------|  Db|--9----|
Ab|-------|  Ab|-------|  Ab|-------|
Eb|-------|  Eb|-------|  Eb|-------|

________________________________________________________________

INTRO

eb|------------------------|      |------------------|
Bb|------------------------|      |------------------|
Gb|--------------2---2-----| 3x   |----4---4---4---4-|
Db|----2---2---2---0---0~--|      |--2---2---2---2---|
Ab|--0---0---0-------------|      |------------------|
Eb|------------------------|      |------------------|

or

eb|------------------------|      |------------------|
Bb|------------------------|      |------------------|
Gb|----9---9---9-----------| 3x   |------------------|
Db|--7---7---7---7-0-7-0~--|      |----9---9---9---9-|
Ab|------------------------|      |--7---7---7---7---|
Eb|------------------------|      |------------------|

VERSE

            A2        Dsus2
So now I am owed this
    A2             Dsus2
One self indulgent tirade
         A2      Dsus2
Hollow attempt to
   E
To sell my point-of-view
                   A2     Dsus2
Yeah I know what's rotting
   A2               Dsus2
Beneath your best intentions
       A2               Dsus2
At the heart of your convictions
       E
sits a broken man, that needs to understand

REFRAIN

A(power/*palm mute if desired)
I am owed this now, I am owed this now, I am owed this now

CHORUS (*power chords if desired)

         C#m        A
This is, all I ever ask from you
E
The only thing you couldn't to do
C#m     A         E
Tell me the whole truth.
C#m             A
You don't know, yourself
E
How can I know you

(I will not be moved)
C#m    A
I will not be moved
         E
Till you tell me the whole truth

INTRO

eb|------------------------|      |------------------|
Bb|------------------------|      |------------------|
Gb|--------------2---2-----| 3x   |----4---4---4---4-|
Db|----2---2---2---0---0~--|      |--2---2---2---2---|
Ab|--0---0---0-------------|      |------------------|
Eb|------------------------|      |------------------|

or

eb|------------------------|      |------------------|
Bb|------------------------|      |------------------|
Gb|----9---9---9-----------| 3x   |------------------|
Db|--7---7---7---7-0-7-0~--|      |----9---9---9---9-|
Ab|------------------------|      |--7---7---7---7---|
Eb|------------------------|      |------------------|

VERSE (*same verse chords)

I know you mean well
With your ancient code of ethics
Lead by example
Can you imagine Christ hitting a child?
You live in a shelter (shelter)
Built from your own truth
There's so many things you..
You don't want me, You don't want me to know

REFRAIN

A(power/*palm mute if desired)
I am owed this now, I am owed this now, I am owed this now

CHORUS (*power chords if desired)

         C#m        A
This is, all I ever ask from you
E
The only thing you couldn't to do
C#m     A         E
Tell me the whole truth.
C#m             A
You don't know, yourself
E
How can I know you

(I will not be moved)
C#m    A
I will not be moved
         E
Till you tell me the whole truth


BRIDGE (*power chords if desired)

    F#m              A                  E
Oh, next time your standing on that stage
(You're lying to yourself, you're lying to yourself)

    F#m          A               E
And selling your cold hollow faith
(You're still lying to me, you're still lying to me)

    F#m              A                  E
Oh, next time your standing on that stage (Revenge!, Revenge!)

    F#m          A             E
Selling your cold hollow faith Remember

ADLIB

eb|-----------------------------------|
Bb|-----------------------------------|
Gb|--10-13-8-11-6-9-4-7-2-4-/9~-------|
Db|-----------------------------------|
Ab|-----------------------------------|
Eb|-----------------------------------|

CHORUS 2 (*Piano Riffs)

      1             2            3 
This is all I ever asked from you

The only thing you couldn't do
1        2             3
Tell me the whole truth...

(*power chords if desired)

C#m             A
You don't know, yourself

E
How can I know you (I will not be moved)

C#m    A
I will not be moved
         E
Till you tell me the whole truth (the only thing i ask from you)

C#m            A             E
The only thing I ask from you The only thing you couldn't do

C#m     A             E
Tell me the whole truth

OUTRO

C#m    A      (*Down Strum Both Chords twice then mute)
I Will Not...
E
Be Moved

C#m    A          E
I will not be moved

(I am owed this now)

I am owed this now 

(I am owed this now)

C#m~    A~        E~
Tell Me The Whole Truth.

END



Please Rate!,... :o
Tap to rate this tab
 
# A B C D E F G H I J K L M N O P Q R S T U V W X Y Z