Song name
# A B C D E F G H I J K L M N O P Q R S T U V W X Y Z

Taking Back Sunday - Summer Stars tab

tabbed by misery for joy}
Really really simple song.

Intro/Verse (Light Distortion/Clean)
e----------------------------------|
B--3/5/3---1--1---3--3-3-3-3-------|
G--x/x/x---x--x---x--x-x-x-x-(12x)-|
D--5/7/5---3--3---5--5-5-5-5-------|
A----------------------------------|
E----------------------------------|

Chorus 1 (Heavy Distortion)
e---------------------------------------------------------------------------|
B---------------------------------------------------------------------------|
G---------------------------------------------------------------------------|
D--33-3-33-3-33-3-33-3-00-0-00-0-00-0-00-0-88-8-88-8-88-8-88-8-1010-10-1010-|
A--33-3-33-3-33-3-33-3-00-0-00-0-00-0-00-0-88-8-88-8-88-8-88-8-1010-10-1010-|
D--33-3-33-3-33-3-33-3-00-0-00-0-00-0-00-0-88-8-88-8-88-8-88-8-1010-10-1010-|

e-------------------------|
B-------------------------|
G-------------------------|
D--10-1010-10-1010-10-----|
A--10-1010-10-1010-10-----|
D--10-1010-10-1010-10-----|

Chorus 2
e-----------------------------------------------------|
B-----------------------------------------------------|
G-----------------------------------------------------|
D--3333333333333333-0000000000000000-8888888888888888-|
A--3333333333333333-0000000000000000-8888888888888888-|
D--3333333333333333-0000000000000000-8888888888888888-|

e----------------------------------|
B----------------------------------|
G----------------------------------|
D-10101010101010101010101010101010-|
A-10101010101010101010101010101010-|
D-10101010101010101010101010101010-|

Verse
e----------------------------------|
B--3/5/3---1--1---3--3-3-3-3-------|
G--x/x/x---x--x---x--x-x-x-x-(12x)-|
D--5/7/5---3--3---5--5-5-5-5-------|
A----------------------------------|
E----------------------------------|

Chorus 1
e---------------------------------------------------------------------------|
B---------------------------------------------------------------------------|
G---------------------------------------------------------------------------|
D--33-3-33-3-33-3-33-3-00-0-00-0-00-0-00-0-88-8-88-8-88-8-88-8-1010-10-1010-|
A--33-3-33-3-33-3-33-3-00-0-00-0-00-0-00-0-88-8-88-8-88-8-88-8-1010-10-1010-|
D--33-3-33-3-33-3-33-3-00-0-00-0-00-0-00-0-88-8-88-8-88-8-88-8-1010-10-1010-|

e-------------------------|
B-------------------------|
G-------------------------|
D--10-1010-10-1010-10-----|
A--10-1010-10-1010-10-----|
D--10-1010-10-1010-10-----|

Chorus 2
e-----------------------------------------------------|
B-----------------------------------------------------|
G-----------------------------------------------------|
D--3333333333333333-0000000000000000-8888888888888888-|
A--3333333333333333-0000000000000000-8888888888888888-|
D--3333333333333333-0000000000000000-8888888888888888-|

e----------------------------------|
B----------------------------------|
G----------------------------------|
D-10101010101010101010101010101010-|
A-10101010101010101010101010101010-|
D-10101010101010101010101010101010-|

Break (drums and bass play)
Then
(clean)
e-----------------------------------------------------|
B-----------------------------------------------------|
G-----------------------------------------------------|
D--3333333333333333-0000000000000000-8888888888888888-|
A--3333333333333333-0000000000000000-8888888888888888-|
D--3333333333333333-0000000000000000-8888888888888888-|
pm----------------------------------------------------|

e----------------------------------|
B----------------------------------|
G----------------------------------|
D-10101010101010101010101010101010-|
A-10101010101010101010101010101010-|
D-10101010101010101010101010101010-|
pm---------------------------------|

Chorus 1
e---------------------------------------------------------------------------|
B---------------------------------------------------------------------------|
G---------------------------------------------------------------------------|
D--33-3-33-3-33-3-33-3-00-0-00-0-00-0-00-0-88-8-88-8-88-8-88-8-1010-10-1010-|
A--33-3-33-3-33-3-33-3-00-0-00-0-00-0-00-0-88-8-88-8-88-8-88-8-1010-10-1010-|
D--33-3-33-3-33-3-33-3-00-0-00-0-00-0-00-0-88-8-88-8-88-8-88-8-1010-10-1010-|

e-------------------------|
B-------------------------|
G-------------------------|
D--10-1010-10-1010-10-----|
A--10-1010-10-1010-10-----|
D--10-1010-10-1010-10-----|

Chorus 2
e-----------------------------------------------------|
B-----------------------------------------------------|
G-----------------------------------------------------|
D--3333333333333333-0000000000000000-8888888888888888-|
A--3333333333333333-0000000000000000-8888888888888888-|
D--3333333333333333-0000000000000000-8888888888888888-|

e----------------------------------|
B----------------------------------|
G----------------------------------|
D-10101010101010101010101010101010-|
A-10101010101010101010101010101010-|
D-10101010101010101010101010101010-|
(You do that 2x)
Then there is a little random chords that I'm really just too lazy to tab, but a monkey
could pick them out.
Tap to rate this tab
# A B C D E F G H I J K L M N O P Q R S T U V W X Y Z