Song name
# A B C D E F G H I J K L M N O P Q R S T U V W X Y Z

Taking Back Sunday - The Blue Channel tab

Help us improve GuitareTab! Take a short survey!
----------------------------------------------------------------------
	   THE BLUE CHANNEL - Taking Back Sunday
----------------------------------------------------------------------
Tabbed by:chris a
Tuning:standard

i just tabbed this because im bored and its easy and theres still no good tabs for it, 
pretty sure the beggining piano or something
Intro
e|------------------------------------------------|
B|------------------------------------------------|
G|-7-----/9--5------3------222-333-222-333-22-33--|
D|-7(x15)/9--5(x16)-3(x16)-222-333-222-333-22-33--|
A|-5-----/7--3------1------000-111-000-111-00-11--|
E|------------------------------------------------|

Verse
e|-------------------------------------------------|
B|-------------------------------------------------|
G|-7--2--5~-3--------7--2--5~--333-3--333-3--3333--|
D|-7--2--5~-3(x16)---7--2--5~--333-3--333-3--3333--|
A|-5--0--3~-1--------5--0--3~--111-1--111-1--1111--|
E|-------------------------------------------------|
            *
Pre-Chorus
e|--------------------------------|
B|--------------------------------|
G|-7--2--5~-3--------7--2--5~--3--|
D|-7--2--5~-3(x16)---7--2--5~--3--|
A|-5--0--3~-1--------5--0--3~--1--|
E|--------------------------------|
            *
Chorus
e|----------------------------------------------------------|
B|----------------------------------------------------------|
G|7777-7-7777-7-7777-9999-9-9999-9-9999-5555-5-5555-5-5555--|
D|7777-7-7777-7-7777-9999-9-9999-9-9999-5555-5-5555-5-5555--|
A|5555-5-5555-5-5555-7777-7-7777-7-7777-3333-3-3333-3-3333--|
E|----------------------------------------------------------|

e|----------------------------------|--------------------------------------|
B|---(those are tens)---------------|--------------------------------------|
G|-10101010-10-10101010-10-10101010-|-7777-7-7777-7-7777-9999-9-9999-9-9999|
D|-10101010-10-10101010-10-10101010-|-7777-7-7777-7-7777-9999-9-9999-9-9999|
A|--8-8-8-8--8--8-8-8-8--8--8-8-8-8-|-5555-5-5555-5-5555-7777-7-7777-7-7777|
E|----------------------------------|--------------------------------------|

e|------------------------------------------------------|
B|---(those are tens)-----------------------------------|
G|-10101010-10-10101010-10-10101010-3333-3-3333-3-3333--|
D|-10101010-10-10101010-10-10101010-3333-3-3333-3-3333--|
A|--8-8-8-8--8--8-8-8-8--8--8-8-8-8-1111-1-1111-1-1111--|
E|------------------------------------------------------|
Outro (listen hard its right)
e|-------------------------------------|
B|-------------------------------------|
G|-10------9------5--------------------|
D|--x(x8)--x(x8)--x(x16)---------------|
A|--8------7------3--------------------|
E|-------------------------------------|
Related for The Blue Channel tab