Song name
# A B C D E F G H I J K L M N O P Q R S T U V W X Y Z

Taking Back Sunday - Great Romances Of The 20th Century Acoustic tab

Artist: Taking Back Sunday
Song: Great Romances Of The 20th Century (Acoustic)

Video: http://vimeo.com/24058679

Tuning: Half step down

This tab is based off of the video link directly above. If the link no longer works then
try listening to the version off of Faith (When I Let You Down) EP, although my time
stamps will be off. There is a good amount of palm muting in this song but instead of 
tabbing it out it's easier if you just listen to it.

\ = Slide Down, X = Mute

Intro (00:37 - 00:50)

Eb|-----------------------------------------------------------------|
Bb|-------------------------4---------------------------4-----------|
Gb|-----4---4-----------4-----4---4-----4---4-------------4-----4---|
Db|---4---4---4---4---4---4-----4-----4---4---4---4---4-------4---4-|
Ab|-2-----------2---------------------------------------------------|
Eb|-----------------0---------------2-----------2---4-------2-------|

Verse (00:51 - 01:18) - September never stays this cold...

Eb|----------|
Bb|----------|
Gb|------4---|
Db|-4--2-4-4-|
Ab|-2--2-2-4-|
Eb|-4--0---2-|

Interlude (01:19 - 01:25)

Eb|-------------------------------------------------|
Bb|-------------------4-----------------------------|
Gb|-------4-------------4---4-------4-----------4-4-|
Db|---4-----4---4---4-----4-----4-----4---4-----4-4-|
Ab|-2---2-----2-------------------2-------------2\1-|
Eb|---------------0-----------2---------2---0-------|

Verse (01:26 - 01:52) - This won't mean a thing tomorrow...

Eb|---------------|
Bb|---------------|
Gb|------4----4-4-|
Db|-4--2-4-4--4-4-|
Ab|-2--2-2-4--2\1-|
Eb|-4--0---2------|

Chorus - She says c'mon c'mon...

   [01:53 - 02:05]   [02:06 - 02:32]   [02:33 - 02:50--|
Eb|----------------------------------------------------|
Bb|----------------------------------------------------|
Gb|-----3---1-x-1----------3-1-----------3-9-11-9-7-4--|
Db|-6-x-4-x-2-x-2--------6-4-2---------6-4-x-x--x-x-x--|
Ab|-6-x-4-x-2-x-2--------6-4-2---------6-4-7-9--7-5-2--|
Eb|-4-x-2-x--------------4-2-----------4-2-------------|

Bridge - Always comes close but this never comes easy...

   [02:51 - 03:15]   [03:16 - 03:46]
Eb|-0-7-----------------------------|
Bb|-0-7-----------------------------|
Gb|-1-8-----------------3---3---3-1-|
Db|-2-9---------------6-4-6-4-6-4-2-|
Ab|-2-9---------------6-4-6-4-6-4-2-|
Eb|---7---------------4-2-4-2-4-2---|

Outro - I'm in your room...

   [03:47 - 03:59] [04:00 - 04:12]
Eb|-----0-----------------------------------------|
Bb|-----0-----------------------------------------|
Gb|-4-3-1---------------3-1-----------3---3---3-1-|
Db|-4-4-2-------------6-4-2---------6-4-6-4-6-4-2-|
Ab|-2-4-2-------------6-4-2---------6-4-6-4-6-4-2-|
Eb|-4-2---------------4-2-----------4-2-4-2-4-2---|

A note on the outro, in the video he does an embellishment during the A minor on the 2nd
string 2nd fret. I don't like the way it sounds so I didn't include it.
Tap to rate this tab
# A B C D E F G H I J K L M N O P Q R S T U V W X Y Z