Song name
# A B C D E F G H I J K L M N O P Q R S T U V W X Y Z

Taking Back Sunday - Stood A Chance tab

I tabbed this out 1/2 step down for the sake of consistency. Tbs has used e flat tuning 
since Louder Now, but...
Low d# is only used by the bass in the prechorus so it isnt necessary to retune, just 
play everything one fret lower in standard.

Intro/Chorus
Eddie

D#|----|----------------------------|----------------------------|
A#|----|----------------------------|----------------------------|
F#|----|--7--7--7--7--7--7--7--7----|--7--7--7--7--7--7--7--7----|
C#|----|--7>-7--7--7--7--7--7--7----|--7>-7--7--7--7--7--7--7----|
G#|----|--5--5--5--5--5--5--5--5----|--5--5--5--5--5--5--5--5----|
D#|----|----------------------------|----------------------------|


----------------------------|----------------------------|
----------------------------|----------------------------|
--7--7--7--7--7--7--7--7----|----------------------------|
--7>-7--7--7--7--7--7--7----|--7--7--7--7--7--7--7--7----|
--5--5--5--5--5--5--5--5----|--7--7--7--7--7--7--7--7----|
----------------------------|--5>-5--5--5--5--5--5--5----|


----------------------------|----------------------------|
----------------------------|----------------------------|
----------------------------|----------------------------|
--5--5--5--5--5--5--5--5----|--5--5--5--5--5--5--5--5----|
--5--5--5--5--5--5--5--5----|--5--5--5--5--5--5--5--5----|
--3>-3--3--3--3--3--3--3----|--3>-3--3--3--3--3--3--3----|


----------------------------|----------------------------|
----------------------------|----------------------------|
----------------------------|----------------------------|
--5--5--5--5--5--5--5--5----|--5--5--5--5--5--5--5--5----|
--5--5--5--5--5--5--5--5----|--5--5--5--5--5--5--5--5----|
--3>-3--3--3--3--3--3--3----|--3>-3--3--3--3--3--3--3----|


----------------------------|----------------------------|
----------------------------|----------------------------|
--7--7--7--7--7--7--7--7----|--7--7--7--7--7--7--7--7----|
--7>-7--7--7--7--7--7--7----|--7>-7--7--7--7--7--7--7----|
--5--5--5--5--5--5--5--5----|--5--5--5--5--5--5--5--5----|
----------------------------|----------------------------|


----------------------------|----------------------------|
----------------------------|----------------------------|
--7--7--7--7--7--7--7--7----|----------------------------|
--7>-7--7--7--7--7--7--7----|--7--7--7--7--7--7--7--7----|
--5--5--5--5--5--5--5--5----|--7--7--7--7--7--7--7--7----|
----------------------------|--5>-5--5--5--5--5--5--5----|


----------------------------|----------------------------|
----------------------------|----------------------------|
----------------------------|----------------------------|
--5--5--5--5--5--5--5--5----|--5--5--5--5--5--5--5--5----|
--5--5--5--5--5--5--5--5----|--5--5--5--5--5--5--5--5----|
--3>-3--3--3--3--3--3--3----|--3>-3--3--3--3--3--3--3----|


----------------------------|----------------------------|-------|----|----|
----------------------------|----------------------------|-------|----|----|
----------------------------|----------------------------|-------|----|----|
--5--5--5--5--5--5--5--5----|--5--5--5--5--5--5--5L-5L---|--5----|----|----|
--5--5--5--5--5--5--5--5----|--5--5--5--5--5--5--5L-5L---|--5----|----|----|
--3>-3--3--3--3--3--3--3----|--3>-3--3--3--3--3--3L-3L---|--3----|----|----|

John

D#|----|-----------5----------------|-----5--------------5-------|
A#|----|--7-----------------7L------|--7-----------7-------------|
F#|----|----------------------------|----------------------------|
C#|----|----------------------------|----------------------------|
G#|----|----------------------------|----------------------------|
D#|----|----------------------------|----------------------------|


-----------5----------------|--7--5----------|-----------5----------------|
--7-----------------7-------|--------5--3----|--7-----------------7L------|
----------------------------|----------------|----------------------------|
----------------------------|----------------|----------------------------|
----------------------------|----------------|----------------------------|
----------------------------|----------------|----------------------------|


-----5--------------5-------|-----------5----------------|
--7-----------7-------------|--7-----------------7-------|
----------------------------|----------------------------|
----------------------------|----------------------------|
----------------------------|----------------------------|
----------------------------|----------------------------|


--7-----5-------------------|-----------5----------------|
--------------3h-5h-3s-5g---|--7-----------------7L------|
----------------------------|----------------------------|
----------------------------|----------------------------|
----------------------------|----------------------------|
----------------------------|----------------------------|


-----5--------------5-------|-----------5----------------|--7--5----------|
--7-----------7-------------|--7-----------------7-------|--------5--3----|
----------------------------|----------------------------|----------------|
----------------------------|----------------------------|----------------|
----------------------------|----------------------------|----------------|
----------------------------|----------------------------|----------------|


-----------5----------------|-----5--------------5-------|
--7-----------------7L------|--7-----------7-------------|
----------------------------|----------------------------|
----------------------------|----------------------------|
----------------------------|----------------------------|
----------------------------|----------------------------|


-----------5----------------|--7--5----------|----|----|----|----|----|----|
--7-----------------7-------|--------3s------|----|----|----|----|----|----|
----------------------------|----------------|----|----|----|----|----|----|
----------------------------|----------------|----|----|----|----|----|----|
----------------------------|----------------|----|----|----|----|----|----|
----------------------------|----------------|----|----|----|----|----|----|

Verse
Eddie


----|----|----|----|----|----------------------------|
----|----|----|----|----|----------------------------|
----|----|----|----|----|----------------------------|
----|----|----|----|----|----------------------------|
----|----|----|----|----|--5M-5M----xg-5M-5M----xg---|
----|----|----|----|----|----------------------------|


----------------------------|----------------------------|
----------------------------|----------------------------|
----------------------------|----------------------------|
----------------------------|----------------------------|
--5M-5M----xg-5M-5M----xg---|--9M-9M----xg-9M-9M----xg---|
----------------------------|----------------------------|


----------------------------|----------------------------|
----------------------------|----------------------------|
----------------------------|----------------------------|
----------------------------|----------------------------|
--9M-9M----xg-9M-9M----xg---|--5M-5M-------5M-5M---------|
----------------------------|----------------------------|


----------------------------|----------------------------|
----------------------------|----------------------------|
----------------------------|----------------------------|
----------------------------|--5M-5M-------5M-5M---------|
--5M-5M----xg-5M-5M----xg---|-----------xg----------xg---|
----------------------------|----------------------------|


----------------------------|----|----|----|
----------------------------|----|----|----|
----------------------------|----|----|----|
--5M-5M-------5M-5M---------|----|----|----|
-----------xg----------xg---|----|----|----|
----------------------------|----|----|----|


John
 Havent quite figured his part out yet, will update soon.

Rest of the song will come soon! Most of the parts are the same.
Tap to rate this tab
 
# A B C D E F G H I J K L M N O P Q R S T U V W X Y Z