Song name
# A B C D E F G H I J K L M N O P Q R S T U V W X Y Z

Taking Back Sunday - Flicker Fade tab

Flicker Fade by Taking Back Sunday
tab by SensesxFailx
Tuning in eb
Guitar 1 - John Nolan
Guitar 2 - Eddy Reyes

Guitar 1
Intro
        e|---------------------------------------------------|
        B|---------------------------------------------------|
        G|---------------------------------------------------|
        D|-2-2-2-2-2-2-2-2-2-2-2-2-2-2-2-2-2-2-2-2-2-2-2-2-2-|
        A|-2-2-2-2-2-2-2-2-2-2-2-2-2-2-2-2-2-2-2-2-2-2-2-2-2-|
        E|-0-0-0-0-0-0-0-0-0-0-0-0-0-0-0-0-0-0-0-0-0-0-0-0-0-|

Verse 1
        e|----------------------------------------------------------|
        B|----------------------------------------------------------|
        G|-6-6666-6-6666-6-6666-6-6666------------------------------|
        D|-6-6666-6-6666-6-6666-6-6666-9-9999-9-9999-9-9999-9-9999--|
        A|-4-4444-4-4444-4-4444-4-4444-9-9999-9-9999-9-9999-9-9999--|
        E|-----------------------------7-7777-7-7777-7-7777-7-7777--|

        e|----------------------------------------------------------|
        B|----------------------------------------------------------|
        G|-----------------------------2-2222-2-2222-2-2222-2-2222--|
        D|-2-2222-2-2222-2-2222-2-2222-2-2222-2-2222-2-2222-2-2222--|
        A|-2-2222-2-2222-2-2222-2-2222-0-0000-0-0000-0-0000-0-0000--|
        E|-0-0000-0-0000-0-0000-0-0000------------------------------|  x2


        e|------------------------|
        B|------------------------|
        G|-6-6666-6-6666-4-4444-4-|
        D|-6-6666-6-6666-4-4444-4-|
        A|-4-4444-4-4444-2-2222-2-|
        E|------------------------|

Chorus 1
        e|-----------------------------|
        B|-----------------------------|
        G|-666666-222222--------444444-|
        D|-666666-222222-222222-444444-|
        A|-444444-000000-222222-222222-|
        E|---------------000000--------| x2

        e|-----------------------------|
        B|-----------------------------|
        G|-222222222222----------------|
        D|-222222222222-2~----------2--|
        A|-000000000000-2~----------2--|
        E|--------------0~----------0--|

Verse 2
        e|----------------------------------------------------------|
        B|----------------------------------------------------------|
        G|-6-6666-6-6666-6-6666-6-6666------------------------------|
        D|-6-6666-6-6666-6-6666-6-6666-9-9999-9-9999-9-9999-9-9999--|
        A|-4-4444-4-4444-4-4444-4-4444-9-9999-9-9999-9-9999-9-9999--|
        E|-----------------------------7-7777-7-7777-7-7777-7-7777--|

        e|----------------------------------------------------------|
        B|----------------------------------------------------------|
        G|-----------------------------2-2222-2-2222-2-2222-2-2222--|
        D|-2-2222-2-2222-2-2222-2-2222-2-2222-2-2222-2-2222-2-2222--|
        A|-2-2222-2-2222-2-2222-2-2222-0-0000-0-0000-0-0000-0-0000--|
        E|-0-0000-0-0000-0-0000-0-0000------------------------------|  x2

        e|------------------------|
        B|------------------------|
        G|-6-6666-6-6666-4-4444-4-|
        D|-6-6666-6-6666-4-4444-4-|
        A|-4-4444-4-4444-2-2222-2-|
        E|------------------------|

Chorus 2
        e|-----------------------------|
        B|-----------------------------|
        G|-666666-222222--------444444-|
        D|-666666-222222-222222-444444-|
        A|-444444-000000-222222-222222-|
        E|---------------000000--------| x4

        e|-----------------------------|
        B|-----------------------------|
        G|-222222222222222222222-------|
        D|-222222222222222222222--2~---|
        A|-000000000000000000000--2~---|
        E|------------------------0~---|

Bridge

        e|------------------------------------------------------|
        B|------------------------------------------------------|
        G|--------------------6~---4~---2-2-2-2-2-2-2-2-2-2-2-2-|
        D|-2~---4~---7~-------6~---4~---2-2-2-2-2-2-2-2-2-2-2-2-|
        A|-2~---4~---7~-------4~---2~---0-0-0-0-0-0-0-0-0-0-0-0-|
        E|-0~---2~---5~-----------------------------------------|

Outro

        e|-------------------------------------------------|
        B|-------------------------------------------------|
        G|-------------------------------------------------|
        D|-2-2-2-2-2-2-4-4-4-4-4-4-7-7-7-7-7-7-7-7-7-7-7-7-|
        A|-2-2-2-2-2-2-4-4-4-4-4-4-7-7-7-7-7-7-7-7-7-7-7-7-|
        E|-0-0-0-0-0-0-2-2-2-2-2-2-5-5-5-5-5-5-5-5-5-5-5-5-|

        e|-------------------------------------------------|
        B|-------------------------------------------------|
        G|-6-6-6-6-6-6-4-4-4-4-4-4-2-2-2-2-2-2-2-2-2-2-2-2-|
        D|-6-6-6-6-6-6-4-4-4-4-4-4-2-2-2-2-2-2-2-2-2-2-2-2-|
        A|-4-4-4-4-4-4-2-2-2-2-2-2-0-0-0-0-0-0-0-0-0-0-0-0-|
        E|-------------------------------------------------| x2

        e|-----------------------------|
        B|-----------------------------|
        G|-222222222222222222222-------|
        D|-222222222222222222222--2~---|
        A|-000000000000000000000--2~---|
        E|------------------------0~---|

Guitar 2
Intro

        e|---------------------------------------------------|
        B|-121212121212-101010-999-5555555555----------------| Tremolo pick
        G|---------------------------------------------------| all notes
        D|---------------------------------------------------|
        A|---------------------------------------------------|
        E|---------------------------------------------------|

Verse 1 (start halfway through guitar 1 doing verse 1 the second time)

        e|---------------------------------------------------|
        B|-121212121212-101010-999-5555555555555555555555----| Tremolo pick
        G|---------------------------------------------------| all notes
        D|---------------------------------------------------|
        A|---------------------------------------------------|
        E|---------------------------------------------------|

        e|---------------------------------------------------|
        B|-7777777777777777----------------------------------|
        G|---------------------------------------------------|
        D|---------------------------------------------------|
        A|---------------------------------------------------|
        E|---------------------------------------------------|

Chorus 1
        e|-----------------------------|
        B|-----------------------------|
        G|-666666-222222--------444444-|
        D|-666666-222222-222222-444444-|
        A|-444444-000000-222222-222222-|
        E|---------------000000--------| x2

        e|-----------------------------|
        B|-----------------------------|
        G|-222222222222----------------|
        D|-222222222222-2~----------2--|
        A|-000000000000-2~----------2--|
        E|--------------0~----------0--|

Verse 2 (start halfway through guitar 1 doing verse2)

        e|---------------------------------------------------|
        B|-121212121212-101010-999-5555555555555555555555----| Tremolo pick
        G|---------------------------------------------------| all notes
        D|---------------------------------------------------|
        A|---------------------------------------------------|
        E|---------------------------------------------------|

        e|---------------------------------------------------|
        B|-7777777777777777-55555555555555-------------------|
        G|---------------------------------------------------|
        D|---------------------------------------------------|
        A|---------------------------------------------------|
        E|---------------------------------------------------|

        e|---------------------------------------------------|
        B|-121212121212-101010-999-5555555555555555555555----|
        G|---------------------------------------------------|
        D|---------------------------------------------------|
        A|---------------------------------------------------|
        E|---------------------------------------------------|

        e|---------------------------------------------------|
        B|-7777777777777777----------------------------------|
        G|---------------------------------------------------|
        D|---------------------------------------------------|
        A|---------------------------------------------------|
        E|---------------------------------------------------|

Chorus 2
        e|-----------------------------|
        B|-----------------------------|
        G|-666666-222222--------444444-|
        D|-666666-222222-222222-444444-|
        A|-444444-000000-222222-222222-|
        E|---------------000000--------| x4

        e|-----------------------------|
        B|-----------------------------|
        G|-222222222222222222222-------|
        D|-222222222222222222222--2~---|
        A|-000000000000000000000--2~---|
        E|------------------------0~---|

Bridge

        e|---------------------------------------------------|
        B|-77777b888-5555555-77777b888-5555555---------------| For the bend
        G|---------------------------------------------------| tremolo pick
        D|---------------------------------------------------| while slowly
        A|---------------------------------------------------| doing a
        E|---------------------------------------------------| half bend

        e|---------------------------------------------------|
        B|-121212121212-101010-999-5555555555-77777777777----|
        G|---------------------------------------------------|
        D|---------------------------------------------------|
        A|---------------------------------------------------|
        E|---------------------------------------------------|

Outro

        e|---------------------------------------------------|
        B|-121212121212-101010-999-121212121212-101010-999---| Tremolo pick
        G|---------------------------------------------------| all notes
        D|---------------------------------------------------|
        A|---------------------------------------------------|
        E|---------------------------------------------------|

        e|---------------------------------------------------|
        B|-77777b888-5555555-121212121212121212--------------|
        G|---------------------------------------------------|
        D|---------------------------------------------------|
        A|---------------------------------------------------|
        E|---------------------------------------------------| x2

        e|---------------------------------------------------|
        B|-121212121212121212121212-5~-----------------------|
        G|---------------------------------------------------|
        D|---------------------------------------------------|
        A|---------------------------------------------------|
        E|---------------------------------------------------|
Tap to rate this tab
# A B C D E F G H I J K L M N O P Q R S T U V W X Y Z