Song name
# A B C D E F G H I J K L M N O P Q R S T U V W X Y Z

Taking Back Sunday - Head Club tab

Help us improve GuitareTab! Take a short survey!
Tabbed by:
Email:

Tuning: Standard

             ::INTRO::
e|-------------------------------------|
B|-------------------------------------|
G|---5-4-5--5-4-5--5-4-5--5-4-5--------|
D|---5-4-5--5-4-5--5-4-5--5-4-5--------|
A|---3-2-3--3-2-3--3-2-3--3-2-3--------|
E|-------------------------------------|
             ::VERSE::
e|-------------------------------------|
B|-------------------------------------|
G|---5-------7-------------------------|
D|---5-(8x)--7-(8x)--3-----------------|
A|---3-------5-------3-(16x)-----------|
E|-------------------1-----------------|
            ::CHORUS::
e|-------------------------------------|
B|-------------------------------------|
G|---5-------4---------------4---------|
D|---5-(8x)--4-(8x)--5-------4-(8x)----|
A|---3-------2-------5-(8x)--2---------|
E|-------------------3-----------------|
 ::POST::CHORUS::
 e|-----------|
 B|-----------|
 G|----5------|
 D|----5------|
 A|----3------|
 E|-----------|
P.M.   .          
             ::BRIDGE::
e|-------------------------------------|
B|-------------------------------------|
G|-------------------5-----------------|
D|---5-------2-------5-(16x)-----------|
A|---5-(8x)--2-(8x)--3-----------------|
E|---3-------0-------------------------|

     ::END::ON::
e|------------------|
B|------------------|
G|------------------|
D|-------5~---------|
A|-------5~---------|
E|-------3~---------|
Related for Head Club tab