Song name
# A B C D E F G H I J K L M N O P Q R S T U V W X Y Z

Taking Back Sunday - New American Classic tab

New American Classic
By Taking Back Sunday


*RETUNING YOUR GUITAR IS NECESSARY TO PLAY THIS SONG CORRECTLY*

Its not dificult to do. Just tune the A string down to be in
tune with the 3rd fret on the low E and tune the high e string
down to be in tune with the 3rd fret on the B string. When you
strum the 5 highest strings, you should hear a G-major chord.

Sounds best fingerpicked on an acoustic guitar. No pick necessary.

This is a really pretty song, and it's easy to play. So have
fun with it, and don't be affraid to improvise. Here's the tab.


TUNING: EGDGBd

Intro/Verse:


d|------------0-------|----------0------------0---|
B|--0-----------------|--7----------5p0-----------|
G|---------------0----|------0------------5-------|
D|--------0h4-------0-|---------------------------|
G|--0-----------------|--7----------5-------------|
E|--------------------|---------------------------|


Chorus:

  Strum each chord a few times and repeat once
d|---0-----------/0--|--x--x----x------x--x-----|
B|---5-----------/7--|--7--7h8--8------7--7h8---|
G|---0-----------/0--|--0--0----0------0--0-----|
D|---0-----------/0--|--0--0----0------0--0-----|
G|---5-----------/7--|--0--0----0------0--0-----|
E|---x------------x--|--x--x----x------x--x-----|
  Just ask the question...
  

d|--0------------0--|--x------x-----x-----x-----|
B|--5-----------/7--|--7------3-----3-----5-----|
G|--0-----------/0--|--0------0-----0-----0-----|
D|--0-----------/0--|--x------0-----x-----x-----|
G|--5-----------/7--|--9------0-----5-----7-----|
E|--x------------x--|--x------x-----x-----x-----|
  You try to avoid it...
Second Verse:

d|------------0-------|----------0------------0---|
B|*-0-----------------|--7----------5p0----------*|
G|---------------0----|------0------------5-------|
D|--------0h4-------0-|---------------------------|
G|*-0-----------------|--7----------5------------*|
E|--------------------|---------------------------|


Chorus:

  Strum each chord a few times and repeat once
d|---0-----------/0--|--x--x----x------x--x-----|
B|---5-----------/7--|--7--7h8--8------7--7h8---|
G|---0-----------/0--|--0--0----0------0--0-----|
D|---0-----------/0--|--0--0----0------0--0-----|
G|---5-----------/7--|--0--0----0------0--0-----|
E|---x------------x--|--x--x----x------x--x-----|
  Just ask the question...
  

d|--0------------0--|--x------x-----x-----x-----|
B|--5-----------/7--|--7------3-----3-----5-----|
G|--0-----------/0--|--0------0-----0-----0-----|
D|--0-----------/0--|--x------0-----x-----x-----|
G|--5-----------/7--|--9------0-----5-----7-----|
E|--x------------x--|--x------x-----x-----x-----|
  You try to avoid it...


Interlude:

  Strum each chord
d|--2--2-----2-----|--0------2----4\0------|
B|--0----0-----0---|--0------0----0-0------|
G|--0------0-----0-|--0------0----0-0------|
D|--0--------------|--0------0----0-0------|
G|--0--------------|--0------0----0-0------|
E|--x--------------|--x------x----x-x------|

d|--0------0-------|--0---0---0---0---|--2--2h4p2p0-2p0---|
B|--0h3----0-------|--0h3-0---0h3-0---|--0------------0---|
G|--0------0-------|--0---0---0---0---|--0------------0---|
D|--0------0-------|--0---0---0---0---|--0------------0---|
G|--0------0-------|--0---0---0---0---|--0------------0---|
E|--x------x-------|--x---x---x---x---|--x------------x---|

Strings join in

Repeat 7 Times
d|--------0---|-5-5/7\5----|--5----5p4p0---4p0-0---|
B|*----------*|-3-3/5\3----|--0--------------------|
G|------0-----|------------|--0--------------------|
D|---4--------|------------|--0--------------------|
G|*----------*|------------|--0--------------------|
E|------------|------------|--x--------------------|

                                           Play 8 Times   Play 8 Times
d|-4h5-5-5/7-7-9---|-9h10-10-10-10p9-10-10|--10p9--9-----|-------12---|
B|-0-----3/5---8---|-8----8--8--8----8--8-|*-8-----8----*|*----------*|
G|-0-----0-0---0---|----------------------|--------------|--11h12-----|
D|-0-----0-0---0---|----------------------|--------------|------------|
G|-0-----0-0---0---|----------------------|*------------*|*----------*|
E|-x-----x-x---x---|----------------------|--------------|------------|

Chorus:

  Strum each chord a few times and repeat once
d|---0-----------/0--|--x--x----x------x--x-----|
B|---5-----------/7--|--7--7h8--8------7--7h8---|
G|---0-----------/0--|--0--0----0------0--0-----|
D|---0-----------/0--|--0--0----0------0--0-----|
G|---5-----------/7--|--0--0----0------0--0-----|
E|---x------------x--|--x--x----x------x--x-----|
  Just ask the question...
  

d|--0------------0--|--x------x-----x-----x-----|
B|--5-----------/7--|--7------3-----3-----5-----|
G|--0-----------/0--|--0------0-----0-----0-----|
D|--0-----------/0--|--x------0-----x-----x-----|
G|--5-----------/7--|--9------0-----5-----7-----|
E|--x------------x--|--x------x-----x-----x-----|
  You try to avoid it...


Outro:

d|-----------0--------|----------0------------0--|
B|-0------------------|--7----------5p0----------|
G|---------------0----|------0------------5------|
D|--------0h4-------0-|--------------------------|
G|-0------------------|--7----------5------------|
E|--------------------|--------------------------|

d|-----------0--------|----------0-----------0-------|-x-|
B|-0------------------|--7----------5p0------------0-|-0-|
G|---------------0----|------0------------5-----5----|-0-|
D|--------0h4-------0-|------------------------------|-0-|
G|-0------------------|--7----------5----------------|-0-|
E|--------------------|------------------------------|-x-|

Thats it. Rate please.
Tap to rate this tab
 
# A B C D E F G H I J K L M N O P Q R S T U V W X Y Z