Song name
# A B C D E F G H I J K L M N O P Q R S T U V W X Y Z

Taking Back Sunday - Alone Forever tab

This is a demo from taking back sunday.  It is pretty easy to play and sounds great.  
me what you think and please rate.

E----------------------------------|
B-0---0---0---0---0---0---0---0----|
G---0---0---0---0---0---0---0---0--|   Repeat 6x
D-2---2---0---0--------------------|
A-----------------2---2---3---3----|
E----------------------------------|

Silly crushes in love
do they happen
do they happen so long on

Why do they happen so much

E------------------------------------|
B-3---3---3---3---3---3---5---5------|
G---0---0---0---0---0---0---0---0----|
D-------------------------0---0------|   Repeat 2x
A---------2---2---3---3--------------|
E-3---3------------------------------|


E----------------------------------|
B-0---0---0---0---0---0---0---0----|
G---0---0---0---0---0---0---0---0--|   Repeat 6x
D-2---2---0---0--------------------|
A-----------------2---2---3---3----|
E----------------------------------|

I hate the way you're so bad
I hate the way they go on being bad to long

Too long you go
Lets pull you to love,
It's been long
Lets prevail you oh


E------------------------------------|
B-3---3---3---3---3---3---5---5------|
G---0---0---0---0---0---0---0---0----|
D-------------------------0---0------|   Repeat 4x
A---------2---2---3---3--------------|
E-3---3------------------------------|

People always say it'll get better
But it wont
Stop telling me to forget her
Just let me be alone


E----------------------------------|
B-0---0---0---0---0---0---0---0----|
G---0---0---0---0---0---0---0---0--|   Repeat 6x
D-2---2---0---0--------------------|
A-----------------2---2---3---3----|
E----------------------------------|

Just let me be alone
Tap to rate this tab
# A B C D E F G H I J K L M N O P Q R S T U V W X Y Z