Guitaretab - guitar tabs
Song name
# A B C D E F G H I J K L M N O P Q R S T U V W X Y Z

Taking Back Sunday - Error Operator tab

band-taking back sunday
Album - Fantastic 4 sound track
Song - Error Operator

tabber-james parocha

if you dont hear it yet gogogogogo
Guitar 1 - Lead - Fred
Guitar 2 - Rhythm - Eddie

Guitar 1:
Intro
|----------------|  |----------------------------------|
|----------------|  |----------------------------------|
|----------------|  |-9-9-9-9-9-9-9-9-9-9-9-9-9-9-9-9--|
|----------------|  |----------------------------------|
|----------------|  |-7-7-7-7-7-7-7-7-7-7-7-7-7-7-7-7--|
|-0-0-0-0-0-0-0-0|x4|----------------------------------|


Verse:
|--------------------------------|
|--------------------------------|
|-------4-4-4-4-4-------7-7-7-7-7|
|-2-2-2-4-4-4-4-4-5-5-5-7-7-7-7-7|
|-2-2-2-2-2-2-2-2-5-5-5-5-5-5-5-5|
|-0-0-0-----------3-3-3----------|x4

Chorus:
|-----------------------------------------------------------------|
|-----------------------------------------------------------------|
|-5-5-5-5-5-5-5-5-----------------7-7-7-7-7-7-7-7-7-7-7-7-7-7-7-7-|
|-5-5-5-5-5-5-5-5-5-5-5-5-5-5-5-5-7-7-7-7-7-7-7-7-7-7-7-7-7-7-7-7-|
|-3-3-3-3-3-3-3-3-5-5-5-5-5-5-5-5-5-5-5-5-5-5-5-5-5-5-5-5-5-5-5-5-|
|-----------------3-3-3-3-3-3-3-3---------------------------------|x2

Play the Verse after the Chorus x4

Verse 2:
|-------------------------------------------------------------------|
|-------------------------------------------------------------------|
|-9-9-9-9-9-9-9-9-9-9-9-9-9-9-9-9-9-9-9-9-9-9-9-9-9-9-99-9-9-9-9-9-|
|-------------------------------------------------------------------|
|-7-7-7-7-7-7-7-7-7-7-7-7-7-7-7-7-7-7-7-7-7-7-7-7-7-7-7-7-7-7-7-7-7-|
|-------------------------------------------------------------------|
...You get the point...

Chorus x4

Breakdown:
|12p0------------12p0-----------10p0------9p0----------7p0---------5p0-----|
|-----0h10h12p0-------0h10h12p0------0h10-----0h8h10p0-----0h7h8p0-----0h7-|
|--------------------------------------------------------------------------|
|--------------------------------------------------------------------------|
|--------------------------------------------------------------------------|
|--------------------------------------------------------------------------|

e--------------------------|
B--------------------------|
G--------------------------|
D--------------------------|
A---5--5h7------5--5h7-----|
E-00--0-----0000--0----000-|




Chorus x4
______________________________________________________________

Guitar 2:
Intro:
|----------------------------------------------------------------|
|----------------------------------------------------------------|
|12--12-12--12--12--12--1211/1211--12--12--12--12--1212121212---|
|----------------------------------------------------------------|
|10--10--10--10--10--10--10-9/10-9--10-10--10--10--1010101010---|
|----------------------------------------------------------------|

Verse:
Play the same as Guitar One for the first half then play the intro.
[ Tab from: http://www.guitaretab.com/t/taking-back-sunday/60659.html ]
Chorus:
|------------------|   |---------------------|
|------------------|   |---------------------|
|-16------14-------|   |-16p14----16p14------|
|------------------|   |-------17-------17---|
|-14(x16)-12(X16)--|   |---------------------|
|------------------|x2 |---------------------|

After the Chorus play the verse/intro again.

Verse:
|---------------------------------------------------------------|
|---------------------------------------------------------------|
|---------------------------------------------------------------|
|-------14-----14-------12-----12-------11-----11-------9-----9-|
|---------------------------------------------------------------|
|-0-0-0----0-0----0-0-0----0-0----0-0-0----0-0----0-0-0---0-0---|x2
PM.....    ...    .....    ...    .....    ...    .....    ...

*The second time around skip the last two PM sets and do a pick slide*

Chorus x2
But at the end of the second time play...

|----------------------------------------|
|----------------------------------------|
|----------------------------------------|
|----------------------------------------|
|-----5---5h7---------5---5h7-----7~~~~~-|
|-0-0---0-----0-0-0-0---0-----0-0--------|


Breakdown:
|---------------------------------------------------------------|
|---------------------------------------------------------------|
|---------------------------------------------------------------|
|-------14-----14-------12-----12-------11-----11-------9-----9-|
|---------------------------------------------------------------|
|-0-0-0----0-0----0-0-0----0-0----0-0-0----0-0----0-0-0---0-0---|x7
PM.....    ...    .....    ...    .....    ...    .....   ...

(I prefer the sound on the D string, but it also works using the G string, 7, 5, 4, 2.)


At the end of the breakdown he switches the pattern...
|-----------------|
|-----------------|
|-----------------|
|-------12-----14-|
|-----------------|
|-0-0-0----0-0----|x7

Continued
|--------------------------------------------------|
|--------------------------------------------------|
|-9-9-9-9-9-9-9--9-7-7-7-7--7-6-6-6-6--6-4-4-4-4-4-|
|--------------------------------------------------|
|-7-7-7-7-7-7-7--7-5-5-5-5--5-4-4-4-4--4-2-2-2-2-2-|
|--------------------------------------------------|x4
*listen to the song for strumming

Chorusx2

End on.
|-----------------------------------|
|-----------------------------------|
|-----------------------------------|
|-----------------------------------|
|-----5---5h7---------5---5h7-------|
|-0-0---0-----0-0-0-0---0-----0-0-0-|

________________________________________________________________

Guitar Three:
As a kick I figured I'd add the third guitar that is heard during the breakdown.

|-----------------------------------|
|-----------------------------------|
|9-9-9-9-9-9-9-9-9-9-9-9-9-9-9-9-9-9|
|-----------------------------------|
|7-7-7-7-7-7-7-7-7-7-7-7-7-7-7-7-7-7|
|-----------------------------------|

Questions or Comments? Email me:im_gone_but_i_miss_u@yahoo.com
Related for Error Operator tab