Song name
# A B C D E F G H I J K L M N O P Q R S T U V W X Y Z

Taking Back Sunday - Up Against tab

Tabbed by: kyoshiro
Email: sedah_21@yahoo.com
Tuning: Standard

Ok, I've been playin' for quite awhile now but this is my first time to submit tabs.
Oh and I'm really not that technical. I don't really know the damn names for stuff.
I just play, dammit!...so here it goes


Palm Muted w/ dist.
|---------------------------------|  |--------|
|---------------------------------|  |--------|
|------6---5----------1---3-------|  |--------| 4x
|---------------------------------|  |---6--6-|
|----4----------------------------|  |---4--4-|
|--6-----4-----0-1h2----2---0-----|  |---2--2-|


Palm Muted w/ dist.
|---------------------------------|  |--------------|  |---------|
|---------------------------------|  |--------------|  |---------|
|------6---5----------1---3-------|  |--------------|  |---------|
|---------------------------------|  |--6-6--6-6--6-|  |------9*-|
|----4----------------------------|  |--4-4--4-4--4-|  |----9*---|
|--6-----4-----0-1h2----2---0-----|  |--2-2--2-2--2-|  |--9*-----|

|-----------------------|
|-----------------------|
|-----------------------|
|--8--6--3--4-------6--6|
|--8--6--3--4-------4--4|
|--6--4--1--2-------2--2|
   3x 3x 3x 2x      4x


verse
|------------------------------------------------------------------|
|------------------------------------------------------------------|
|--------------------6~~---------------6~~-------------------------|
|--\8---------1---1------------1---1--------------1---1------------|
|-----------4---4----4~~-----4---4-----4~~------4---4--------------|
|--\6-----2---2------------2---2--------------2---2----------------|


Not done yet!!! sorry! I have to make some more time for this. time to watch some 
YAY!!!
Tap to rate this tab
# A B C D E F G H I J K L M N O P Q R S T U V W X Y Z