Song name
# A B C D E F G H I J K L M N O P Q R S T U V W X Y Z

Taking Back Sunday - What It Feels Like To Be A Ghost tab

This is a littme more than half of the song.. i'll have the rest up soon..

Intro: 0:00-0:25

Guitar 1:
|--------------------------------------------------|
|--------------------------------------------------|
|--------------------------------------------------|
|--------------------------------------------------|
|---10---10-------10---10------5---5-------5---5---|
|-7----7----7-7-7----7----7--3---3---3-3-3---3---3-|

|-----------------------------------------------------|
|-----------------------------------------------------|
|-----------------------------------------------------|
|-----------------------------------------------------|
|---10---10-------10---10------5---5-------5---5------|
|-7----7----7-7-7----7----7--3---3---3-3-3---3---3~-0-|

Guitar 2:
|-----------------------------------------------------|
|-----------------------------------------------------|
|-----------------------------------------------------| (play open strings
|---------------------------------------------------0-|    same time as 
|---------------------------------------------------0-|      guitar 1)
|---------------------------------------------------0-|

Guitar 1: 
E|--------------------------------------------------|
B|--------------------------------------------------|
G|--------------------------------------------------|
D|--------------------------------------------------|
A|---10---10-------10---10------5---5-------5---5---|
E|-7----7----7-7-7----7----7--3---3---3-3-3---3---3-|

Guitar 2:
|-------------------------------------------------|
|-------------------------------------------------|  (same strumming
|-------------------------------------------------|     pattern as
|-7-7--7-7-5-7-7-7--7-7-5-3-3--3-3-2-3-3-3--3-3-5-|      guitar 1)
|-7-7--7-7-5-7-7-7--7-7-5-3-3--3-3-2-3-3-3--3-3-5-|
|-7-7--7-7-5-7-7-7--7-7-5-3-3--3-3-2-3-3-3--3-3-5-|

Guitar 1:
|-----------------------------------------------------|
|-----------------------------------------------------|
|-----------------------------------------------------|
|-----------------------------------------------------|
|---10---10-------10---10------5---5-------5---5------|
|-7----7----7-7-7----7----7--3---3---3-3-3---3---3~-0-|

Guitar 2:
|-----------------------------------------------------|
|-----------------------------------------------------|
|-----------------------------------------------------|
|-7-7--7-7-5-7-7-7--7-7-5-3-3--3-3-2-3-3-3--3-3-5---0-|
|-7-7--7-7-5-7-7-7--7-7-5-3-3--3-3-2-3-3-3--3-3-5---0-|
|-7-7--7-7-5-7-7-7--7-7-5-3-3--3-3-2-3-3-3--3-3-5---0-|

Verse: 0:26-0:50

Guitar 2:
|-----------------------------------------------------------------|
|-----------------------------------------------------------------|
|-2-2-2-------2-2-2-------2-2-------------------------------------|
|-2-2-2-3-3-3-2-2-2-3-3-3-2-2-3-3-5-5-5-5-5-5-5-5-5-5-5-5-5-5-5-5-|
|-0-0-0-3-3-3-0-0-0-3-3-3-0-0-3-3-5-5-5-5-5-5-5-5-5-5-5-5-5-5-5-5-|
|-------3-3-3-------3-3-3-----3-3-5-5-5-5-5-5-5-5-5-5-5-5-5-5-5-5-|
  * * * * * * * * * * * * * * * * * * * * * * * * * * * * * * * *

|-----------------------------------------------------------------|
|-----------------------------------------------------------------|
|-2-2-2-------2-2-2-------2-2-------------------------------------|
|-2-2-2-3-3-3-2-2-2-3-3-3-2-2-3-3-5-5-5-5-5-5-5-5-5-5-5-5-5-5-5-5-|
|-0-0-0-3-3-3-0-0-0-3-3-3-0-0-3-3-5-5-5-5-5-5-5-5-5-5-5-5-5-5-5-5-|
|-------3-3-3-------3-3-3-----3-3-5-5-5-5-5-5-5-5-5-5-5-5-5-5-5-5-|
  * * * * * * * * * * * * * * * * * * * * * * * * * * * * * * * *

|-----------------------------------------------------------------|
|-----------------------------------------------------------------|
|-2-2-2-------2-2-2-------2-2-------------------------------------|
|-2-2-2-3-3-3-2-2-2-3-3-3-2-2-3-3-5-5-5-5-5-5-5-5-5-5-5-5-5-5-5-5-|
|-0-0-0-3-3-3-0-0-0-3-3-3-0-0-3-3-5-5-5-5-5-5-5-5-5-5-5-5-5-5-5-5-|
|-------3-3-3-------3-3-3-----3-3-5-5-5-5-5-5-5-5-5-5-5-5-5-5-5-5-|
  * * * * * * * * * * * * * * * * * * * * * * * * * * * * * * * *

|-----------------------------------------------------------------|
|-----------------------------------------------------------------|
|-2-2-2-------2-2-2-------2-2-------------------------------------|
|-2-2-2-3-3-3-2-2-2-3-3-3-2-2-3-3-5-5-5-5-5-5-5-5-5-5-5-----------|
|-0-0-0-3-3-3-0-0-0-3-3-3-0-0-3-3-5-5-5-5-5-5-5-5-5-5-5----5---5--|
|-------3-3-3-------3-3-3-----3-3-5-5-5-5-5-5-5-5-5-5-5--3---3----|
  * * * * * * * * * * * * * * * * * * * * * * * * * * * 

Pre-Chorus: 0:51-1:03

Guitar 1:
|---------------------------------------------------------------|
|-10-10-10-10-10-10-10-10-8-8-8-8-8-8-8-8-----------------------|
|--9--9--9--9--9--9--9--9-9-9-9-9-9-9-9-9-----------------------|
|--7--7--7--7--7--7--7--7-7-7-7-7-7-7-7-7-----------------------|
|-------------------------------------------5---5-------5---5---|
|-----------------------------------------3---3---3-3-3---3---3-|

|--------------------------------------------------------------|
|-10-10-10-10-10-10-10-10-8-8-8-8-8-8-8-8----------------------|
|--9--9--9--9--9--9--9--9-9-9-9-9-9-9-9-9----------------------|
|--7--7--7--7--7--7--7--7-7-7-7-7-7-7-7-7-------------------0--|
|-------------------------------------------5---5-------5~--0--|
|-----------------------------------------3---3---3-3-3-----0--|

Chorus: 1:04-1:16

Guitar 2:
|-----------------------------------------------------------------|
|-----------------------------------------------------------------|
|-----------------------------------------------------------------|
|-7-7-7-7-7-7-7-5-7-7-7-7-7-7-7-5-3-3-3-3-3-3-3-2-3-3-3-3-3-3-3-5-|
|-7-7-7-7-7-7-7-5-7-7-7-7-7-7-7-5-3-3-3-3-3-3-3-2-3-3-3-3-3-3-3-5-|
|-7-7-7-7-7-7-7-5-7-7-7-7-7-7-7-5-3-3-3-3-3-3-3-2-3-3-3-3-3-3-3-5-|

|-----------------------------------------------------------|
|-----------------------------------------------------------|
|-----------------------------------------------------------|
|-7-7-7-7-7-7-7-5-7-7-7-7-7-7-7-5-3-3-3-3-3-3-3-2-3-3-3-3-0-|
|-7-7-7-7-7-7-7-5-7-7-7-7-7-7-7-5-3-3-3-3-3-3-3-2-3-3-3-3-0-|
|-7-7-7-7-7-7-7-5-7-7-7-7-7-7-7-5-3-3-3-3-3-3-3-2-3-3-3-3-0-|

Guitar 1:
|----------------------------------------------------|
|----------------------------------------------------|
|----------------------------------------------------| (during end of second
|----------------------------------------------------|    bar of chorus)
|-----------------------------------5---5-------5----|
|---------------------------------3---3---3-3-3----0-|

Verse: 1:17-1:42

Guitar 1:
|-----------------------------------------------------------------|
|-----------------------------------------------------------------|(continue
|-5-5-5-5-5-5-5-5-5-5-5-5-5-5-5-5-4-4-4-4-4-4-4-4-4-4-4-4-4-4-4-4-| playing)
|-5-5-5-5-5-5-5-5-5-5-5-5-5-5-5-5-5-5-5-5-5-5-5-5-5-5-5-5-5-5-5-5-|
|-----------------------------------------------------------------|
|-----------------------------------------------------------------|
  * * * * * * * * * * * * * * * * * * * * * * * * * * * * * * * *

Guitar 2:
|-----------------------------------------------------------------|
|-----------------------------------------------------------------|
|-----------------------------------------------------------------|
|-------------------------------------5-5-5-5-5-5-5-5-5-5-5-5-5-5-|
|-------------------------------------5-5-5-5-5-5-5-5-5-5-5-5-5-5-|
|-------------------------------------5-5-5-5-5-5-5-5-5-5-5-5-5-5-|
                                      * * * * * * * * * * * * * *

|-----------------------------------------------------------------|
|-----------------------------------------------------------------|
|-2-2-2-------2-2-2-------2-2-------------------------------------|
|-2-2-2-3-3-3-2-2-2-3-3-3-2-2-3-3-5-5-5-5-5-5-5-5-5-5-5-5-5-5-5-5-|
|-0-0-0-3-3-3-0-0-0-3-3-3-0-0-3-3-5-5-5-5-5-5-5-5-5-5-5-5-5-5-5-5-|
|-------3-3-3-------3-3-3-----3-3-5-5-5-5-5-5-5-5-5-5-5-5-5-5-5-5-|
  * * * * * * * * * * * * * * * * * * * * * * * * * * * * * * * *

|-----------------------------------------------------------------|
|-----------------------------------------------------------------|
|-2-2-2-------2-2-2-------2-2-------------------------------------|
|-2-2-2-3-3-3-2-2-2-3-3-3-2-2-3-3-5-5-5-5-5-5-5-5-5-5-5-5-5-5-5-5-|
|-0-0-0-3-3-3-0-0-0-3-3-3-0-0-3-3-5-5-5-5-5-5-5-5-5-5-5-5-5-5-5-5-|
|-------3-3-3-------3-3-3-----3-3-5-5-5-5-5-5-5-5-5-5-5-5-5-5-5-5-|
  * * * * * * * * * * * * * * * * * * * * * * * * * * * * * * * *

|-----------------------------------------------------------------|
|-----------------------------------------------------------------|
|-2-2-2-------2-2-2-------2-2-------------------------------------|
|-2-2-2-3-3-3-2-2-2-3-3-3-2-2-3-3-5-5-5-5-5-5-5-5-5-5-5-----------|
|-0-0-0-3-3-3-0-0-0-3-3-3-0-0-3-3-5-5-5-5-5-5-5-5-5-5-5----5---5--|
|-------3-3-3-------3-3-3-----3-3-5-5-5-5-5-5-5-5-5-5-5--3---3----|
  * * * * * * * * * * * * * * * * * * * * * * * * * * * 

Pre-Chorus: 1:42-1:54

Guitar 1:
|---------------------------------------------------------------|
|-10-10-10-10-10-10-10-10-8-8-8-8-8-8-8-8-----------------------|
|--9--9--9--9--9--9--9--9-9-9-9-9-9-9-9-9-----------------------|
|--7--7--7--7--7--7--7--7-7-7-7-7-7-7-7-7-----------------------|
|-------------------------------------------5---5-------5---5---|
|-----------------------------------------3---3---3-3-3---3---3-|

|--------------------------------------------------------------|
|-10-10-10-10-10-10-10-10-8-8-8-8-8-8-8-8----------------------|
|--9--9--9--9--9--9--9--9-9-9-9-9-9-9-9-9----------------------|
|--7--7--7--7--7--7--7--7-7-7-7-7-7-7-7-7-------------------0--|
|-------------------------------------------5---5-------5~--0--|
|-----------------------------------------3---3---3-3-3-----0--|

Chorus: 1:55-2:09

Guitar 2:
|-----------------------------------------------------------------|
|-----------------------------------------------------------------|
|-----------------------------------------------------------------|
|-7-7-7-7-7-7-7-5-7-7-7-7-7-7-7-5-3-3-3-3-3-3-3-2-3-3-3-3-3-3-3-5-|
|-7-7-7-7-7-7-7-5-7-7-7-7-7-7-7-5-3-3-3-3-3-3-3-2-3-3-3-3-3-3-3-5-|
|-7-7-7-7-7-7-7-5-7-7-7-7-7-7-7-5-3-3-3-3-3-3-3-2-3-3-3-3-3-3-3-5-|

|----------------------------------------------------------|
|----------------------------------------------------------|
|----------------------------------------------------------|
|-7-7-7-7-7-7-7-5-7-7-7-7-7-7-7-5-3-3-3-3-3-3-3-2-3-3-3-3--|
|-7-7-7-7-7-7-7-5-7-7-7-7-7-7-7-5-3-3-3-3-3-3-3-2-3-3-3-3--|
|-7-7-7-7-7-7-7-5-7-7-7-7-7-7-7-5-3-3-3-3-3-3-3-2-3-3-3-3--|

|---------------------|
|---------------------|
|---------------------|
|-3-3-3-3-3-3-3-3-3-0-|
|-3-3-3-3-3-3-3-3-3-0-|
|-3-3-3-3-3-3-3-3-3-0-|

Guitar 1:
|----------------------------------------------------|
|----------------------------------------------------|
|----------------------------------------------------| (listen to song
|---------------------------------0------------------|   for timing)
|---5---5-------5---5-------5---5-0------------------|
|-3---3---3-3-3---3---3-3-3---3---0------------------|

Part with effects:

Guitar 1:
|---------3--------------------
|--5-------------------5----5--
|--5--------5-4-5------5----5--
|--5----5---------5----3----5--
|--3-------------------3----3--
|----------------------3-------
Tap to rate this tab
 
# A B C D E F G H I J K L M N O P Q R S T U V W X Y Z