Song name
# A B C D E F G H I J K L M N O P Q R S T U V W X Y Z

Taking Back Sunday - I Am Fred Astaire tab


Tuning:
Guitars 1&2 Standard


INTRO
Guitar 1
E|----------------------|
B|----------------------|
G|-7~~~~~~~~~~~~7~~~~~7-|
D|-7~~~~~~~~~~~~--------|
A|-5~~~~~~~~~~~~--------|1x
E|----------------------|
                *    ph
 |
 |
Guitar 2
E|----------------------|
B|----------------------|
G|--------7~~~~~~~~~~~~-|
D|--------7~~~~~~~~~~~~-|
A|--------5~~~~~~~~~~~~-|1x
E|----------------------|


Guitar 1
E|---------------------------------|
B|---------------------------------|
G|-77777777777777777777777777777777|
D|-xxxxxxxxxxxxxxxxxxxxxxxxxxxxxxxx|
A|-55555555555555555555555555555555|1x
E|---------------------------------|
 |
 |
Guitar 2
E|---------------------------------|
B|---------------------------------|
G|-77777777777777777777777777777777|
D|-77777777777777777777777777777777|
A|-55555555555555555555555555555555|1x
E|---------------------------------|


VERSE
Guitar 1
E|-------------------------------------------------5555555555555555|
B|---------------------------------7777777777777777xxxxxxxxxxxxxxxx|
G|-77777777777777777777777777777777xxxxxxxxxxxxxxxx2222222222222222|
D|-xxxxxxxxxxxxxxxxxxxxxxxxxxxxxxxx4444444444444444----------------|
A|-55555555555555555555555555555555--------------------------------|1x
E|-----------------------------------------------------------------|
 |
 |
Guitar 2
E|-----------------------------------------------------------------|
B|-----------------------------------------------------------------|
G|-7~~~~~~~--------------------------------------------------------|
D|-7~~~~~~~--------------------------------------------------------|
A|-5~~~~~~~--------------------------------------------------------|1x
E|-----------------------------------------------------------------|


Guitar 1
E|-------------------------------------------------5555555555555555|
B|---------------------------------7777777777777777xxxxxxxxxxxxxxxx|
G|-77777777777777777777777777777777xxxxxxxxxxxxxxxx2222222222222222|
D|-xxxxxxxxxxxxxxxxxxxxxxxxxxxxxxxx4444444444444444----------------|
A|-55555555555555555555555555555555--------------------------------|1x
E|-----------------------------------------------------------------|
 |
 |
Guitar 2
E|-----------------------------------------------------------------|
B|-----------------------------------------------------------------|
G|-----------------------------------------------------------------|
D|---------------------------------------------------------7x7-7-7-|
A|---------------------------------------------------------7x7-7-7-|1x
E|---------------------------------------------------------5x5-5-5-|


PRE-CHORUS
Guitar
E|------------------------5-55-5-5-|
B|-----------------7-7-7-7x-xx-x-x-|
G|-7-7-7-77-77-7-7-x-x-x-x2-22-2-2-|
D|-x-x-x-xx-xx-x-x-4-4-4-4---------|
A|-5-5-5-55-55-5-5-----------------|1x
E|---------------------------------|
 |
 |
Guitar 2
E|---------------------------------|
B|---------------------------------|
G|-77777777777777777777777777777777|
D|-77777777777777777777777777777777|
A|-55555555555555555555555555555555|1x
E|---------------------------------|


VERSE
Guitar 1
E|-------------------------------------------------5555555555555555|
B|---------------------------------7777777777777777xxxxxxxxxxxxxxxx|
G|-77777777777777777777777777777777xxxxxxxxxxxxxxxx2222222222222222|
D|-xxxxxxxxxxxxxxxxxxxxxxxxxxxxxxxx4444444444444444----------------|
A|-55555555555555555555555555555555--------------------------------|1x
E|-----------------------------------------------------------------|
 |
 |
Guitar 2
E|-----------------------------------------------------------------|
B|-----------------------------------------------------------------|
G|-7~~~~~~~--------------------------------------------------------|
D|-7~~~~~~~--------------------------------------------------------|
A|-5~~~~~~~--------------------------------------------------------|1x
E|-----------------------------------------------------------------|


Guitar 1
E|-------------------------------------------------5555555555555555|
B|---------------------------------7777777777777777xxxxxxxxxxxxxxxx|
G|-77777777777777777777777777777777xxxxxxxxxxxxxxxx2222222222222222|
D|-xxxxxxxxxxxxxxxxxxxxxxxxxxxxxxxx4444444444444444----------------|
A|-55555555555555555555555555555555--------------------------------|1x
E|-----------------------------------------------------------------|
 |
 |
Guitar 2
E|-----------------------------------------------------------------|
B|-----------------------------------------------------------------|
G|-----------------------------------------------------------------|
D|---------------------------------------------------------7x7-7-7-|
A|---------------------------------------------------------7x7-7-7-|1x
E|---------------------------------------------------------5x5-5-5-|


     CHORUS
     Guitar 1
     E|-----------------------------------------------------------------|
     B|-----------------------------------------------------------------|
     G|-7~~~~~~~7~~~~~~~----------------5~~~~~~~5~~~~~~~----------------|
     D|-7~~~~~~~7~~~~~~~7~~~~~~~7~~~~~~~5~~~~~~~5~~~~~~~5~~~~~~~5~~~~~~~|
     A|-5~~~~~~~5~~~~~~~7~~~~~~~7~~~~~~~3~~~~~~~3~~~~~~~5~~~~~~~5~~~~~~~|2x
     E|-----------------5~~~~~~~5~~~~~~~----------------3~~~~~~~3~~~~~~~|
      |
      |
     Guitar 2
     E|-----------------------------------------------------------------|
     B|-----------------------------------------------------------------|
     G|-7777777777777777----------------5555555555555555----------------|
     D|-7777777777777777777777777777777755555555555555555555555555555555|
     A|-5555555555555555777777777777777733333333333333335555555555555555|2x
     E|-----------------5555555555555555----------------3333333333333333|


POST-CHORUS
Guitar 1
E|-----------------|
B|-8887778887778877|
G|-xxxxxxxxxxxxxxxx|
D|-5554445554445544|
A|-----------------|1x
E|-----------------|
 |
 |
Guitar 2
E|-----------------|
B|-----------------|
G|-----------------|
D|-5555555555555555|
A|-5555555555555555|1x
E|-3333333333333333|


Guitar 1
E|---------------------------------|
B|-88877788877788778887778887778877|
G|-xxxxxxxxxxxxxxxxxxxxxxxxxxxxxxxx|
D|-55544455544455445554445554445544|
A|---------------------------------|1x
E|---------------------------------|
 |
 |
Guitar 2
E|---------------------------------|
B|---------------------------------|
G|-7~~~~~--------------------------|
D|-7~~~~~--------------------------|
A|-5~~~~~--------------------------|1x
E|---------------------------------|



Guitar 1
E|---------------------------------|
B|-88877788877788778887778887778877|
G|-xxxxxxxxxxxxxxxxxxxxxxxxxxxxxxxx|
D|-55544455544455445554445554445544|
A|---------------------------------|1x
E|---------------------------------|
 |
 |
Guitar 2
E|---------------------------------|
B|---------------------------------|
G|-7~~~~~--------------------------|
D|-7~~~~~--------------------------|
A|-5~~~~~--------------------------|1x
E|----------------------X\\\\\\\\\\|


VERSE
Guitar 1
E|-------------------------------------------------5555555555555555|
B|---------------------------------7777777777777777xxxxxxxxxxxxxxxx|
G|-77777777777777777777777777777777xxxxxxxxxxxxxxxx2222222222222222|
D|-xxxxxxxxxxxxxxxxxxxxxxxxxxxxxxxx4444444444444444----------------|
A|-55555555555555555555555555555555--------------------------------|2x
E|-----------------------------------------------------------------|
 |
 |
Guitar 2
E|-----------------------------------------------------------------|
B|-----------------------------------------------------------------|
G|-7~~~~~~~--------------------------------------------------------|
D|-7~~~~~~~--------------------------------------------------------|
A|-5~~~~~~~--------------------------------------------------------|2x
E|-----------------------------------------------------------------|


     CHORUS
     Guitar 1
     E|-----------------------------------------------------------------|
     B|-----------------------------------------------------------------|
     G|-7~~~~~~~7~~~~~~~----------------5~~~~~~~5~~~~~~~----------------|
     D|-7~~~~~~~7~~~~~~~7~~~~~~~7~~~~~~~5~~~~~~~5~~~~~~~5~~~~~~~5~~~~~~~|
     A|-5~~~~~~~5~~~~~~~7~~~~~~~7~~~~~~~3~~~~~~~3~~~~~~~5~~~~~~~5~~~~~~~|2x
     E|-----------------5~~~~~~~5~~~~~~~----------------3~~~~~~~3~~~~~~~|
      |
      |
     Guitar 2
     E|-----------------------------------------------------------------|
     B|-----------------------------------------------------------------|
     G|-7777777777777777----------------5555555555555555----------------|
     D|-7777777777777777777777777777777755555555555555555555555555555555|
     A|-5555555555555555777777777777777733333333333333335555555555555555|2x
     E|-----------------5555555555555555----------------3333333333333333|


BRIDGE
Guitar 1
E|-------5555555555------5555555555------5555555555------5555555555|
B|-777788xxxxxxxxxx777788xxxxxxxxxx777788xxxxxxxxxx777788xxxxxxxxxx|
G|-xxxxxx2222222222xxxxxx2222222222xxxxxx2222222222xxxxxx2222222222|
D|-444455----------444455----------444455----------444455----------|
A|-----------------------------------------------------------------|2x
E|-----------------------------------------------------------------|
 |
 |
Guitar 2
E|-----------------------------------------------------------------|
B|-----------------------------------------------------------------|
G|-7777777777777777----------------5555555555555555----------------|
D|-7777777777777777777777777777777755555555555555555555555555555555|
A|-5555555555555555777777777777777733333333333333335555555555555555|2x
E|-----------------5555555555555555----------------3333333333333333|


OUTTRO
Guitar 1
E|-----------------|
B|-8887778887778877|
G|-xxxxxxxxxxxxxxxx|
D|-5554445554445544|
A|-----------------|1x
E|-----------------|
 |
 |
Guitar 2
E|-----------------|
B|-----------------|
G|-----------------|
D|-5555555555555555|
A|-5555555555555555|1x
E|-3333333333333333|


Guitar 1 (Reverb Effects)
E|---------------------------------|
B|-8~~~~~--------------------------|
G|-x-------------------------------|
D|-5~~~~~--------------------------|
A|---------------------------------|1x
E|---------------------------------|
 |
 |
Guitar 2 (Reverb Effects)
E|---------------------------------|
B|---------------------------------|
G|---------------------------------|
D|-5~~~~~--------------------------|
A|-5~~~~~--------------------------|1x
E|-3~~~~~--------------------------|
Tap to rate this tab
# A B C D E F G H I J K L M N O P Q R S T U V W X Y Z