Song name
# A B C D E F G H I J K L M N O P Q R S T U V W X Y Z

Taking Back Sunday - Liar It Takes One To Know One tab

-------------------------------------------------------------------------------
			     Liar (It Takes One to Know One) - Taking Back Sunday
-------------------------------------------------------------------------------
Tabbed by: ~Rocker Angel~

Tuning: Standard

Intro/Verse1:
Starting with only Guitar 1

Guitar 1:
e|-----------------------------------------------------------------------------|
B|-----------------------------------------------------------------------------|
G|--444444444444-6666-888888888888--9--9--9--9-44444444-33333333---------------|
D|--666666666666-8888-999999999999-11-11-11-11-66666666-44444444---------------|
A|-----------------------------------------------------------------------------|
E|-----------------------------------------------------------------------------|

e|-----------------------------------------------------------------------------|
B|-----------------------------------------------------------------------------|
G|--11111111-0000-3333-444444444444-6666-888888888888--9--9--9--9--------------|
D|--22222222-2222-4444-666666666666-8888-999999999999-11-11-11-11--------------|
A|-----------------------------------------------------------------------------|
E|-----------------------------------------------------------------------------|

e|-----------------------------------------------------------------------------|
B|-----------------------------------------------------------------------------|
G|--444444444444-3333-11111100-00000033----------------------------------------|
D|--666666666666-4444-22222222-22222244----------------------------------------|
A|-----------------------------------------------------------------------------|
E|-----------------------------------------------------------------------------|

(Adding guitar 2)

Guitar 1:
e|-----------------------------------------------------------------------------|
B|-----------------------------------------------------------------------------|
G|--444444444444-6666-888888888888-9--9--9--9--444444444444-3333---------------|
D|--666666666666-8888-999999999999-11-11-11-11-666666666666-4444---------------|
A|-----------------------------------------------------------------------------|
E|-----------------------------------------------------------------------------|

e|-----------------------------------------------------------------------------|
B|-----------------------------------------------------------------------------|
G|--111111-0--(hold)-----------------------------------------------------------|
D|--222222-2-------------------------------------------------------------------|
A|-----------------------------------------------------------------------------|
E|-----------------------------------------------------------------------------|

Guitar 2:
                                                                                         
             v ?? im not sure...
e|--x-x-x-x---4--4--4--2--4--4--x-x-x-x--4--4--4--2--4--3--------------------|
B|--x-x-x-x---4--4--4--2--4--4--x-x-x-x--4--4--4--2--4--5--------------------|
G|--x-x-x-x---4--4--4--3--4--4--x-x-x-x--4--4--4--3--4--4--------------------|
D|--x-x-x-x---6--6--6--4--6--6--x-x-x-x--6--6--6--4--6-----------------------|
A|--x-x-x-x---6--6--6--4--6--6--x-x-x-x--6--6--6--4--6-----------------------|
E|--x-x-x-x---4--4--4--2--4--4--x-x-x-x--4--4--4--2--4-----------------------|


PreChorus:

Both Guitars:
e|-----------------------------------------------------------------------------|
B|-----------------------------------------------------------------------------|
G|-------------8888-6666------------------------------8888-6666----------------|
D|---22222222-8888-6666-666666666666-4444-22222222-8888-4444-------------------|
A|---22222222-6666-4444-666666666666-4444-22222222-6666-4444-------------------|
E|---00000000------------444444444444-2222-00000000----------------------------|

e|-------------------------------------------------------------------------------|
B|-------------------------------------------------------------------------------|
G|-------------------------------------------------------------------------------|
D|--666666666666---x-------------------------------------------------------------|
A|--666666666666---x\--------(pick slide)----------------------------------------|
E|--444444444444---x\------------------------------------------------------------|

Chorus:

e|-----------------------------------------------------------------------------|
B|-----------------------------------------------------------------------------|
G|--444444444444-6666-888888888888--9--9--9--9-44444444-33333333---------------|
D|--666666666666-8888-999999999999-11-11-11-11-66666666-44444444---------------|
A|-----------------------------------------------------------------------------|
E|-----------------------------------------------------------------------------|

e|-----------------------------------------------------------------------------|
B|-----------------------------------------------------------------------------|
G|--1111111111111111----------------(repeat)-----------------------------------|
D|--2222222222222222-----------------------------------------------------------|
A|-----------------------------------------------------------------------------|
E|-----------------------------------------------------------------------------|

then end on and hold:
 e|----4------------------------------------------------------------------------|
 B|----4------------------------------------------------------------------------|
G|----4-------------------------------------------------------------------------|
D|----6-------------------------------------------------------------------------|
A|------------------------------------------------------------------------------|
E|------------------------------------------------------------------------------|

Verse 2

Guitar 1:
e|-----------------------------------------------------------------------------|
B|-----------------------------------------------------------------------------|
G|---444444444444-6666-888888888888--9--9--9--9--444444444444--3333------------|
D|---666666666666-8888-999999999999-11-11-11-11--666666666666--4444------------|
A|-----------------------------------------------------------------------------|
E|-----------------------------------------------------------------------------|

e|-----------------------------------------------------------------------------|
B|-----------------------------------------------------------------------------|
G|---11111100-00000033---444444444444-6666-888888888888-9--9--9--9-------------|
D|---22222222-22222244---666666666666-8888-999999999999-11-11-11-11------------|
A|-----------------------------------------------------------------------------|
E|-----------------------------------------------------------------------------|

e|-----------------------------------------------------------------------------|
B|-----------------------------------------------------------------------------|
G|--111111-0--(hold)-----------------------------------------------------------|
D|--222222-2-------------------------------------------------------------------|
A|-----------------------------------------------------------------------------|
E|-----------------------------------------------------------------------------|

Guitar 2:
e|--x-x-x-x---4--4--4--2--4--4--x-x-x-x--4--4--4--2--4--3--3-----------------|
B|--x-x-x-x---4--4--4--2--4--4--x-x-x-x--4--4--4--2--4--5--5-----------------|
G|--x-x-x-x---4--4--4--3--4--4--x-x-x-x--4--4--4--3--4--4--4-----------------|
D|--x-x-x-x---6--6--6--4--6--6--x-x-x-x--6--6--6--4--6-----------------------|
A|--x-x-x-x---6--6--6--4--6--6--x-x-x-x--6--6--6--4--6-----------------------|
E|--x-x-x-x---4--4--4--2--4--4--x-x-x-x--4--4--4--2--4-----------------------|

e|--x-x-x-x---4--4--4--2--4--4--x-x-x-x--4--4--4--2--4--3--3-3-3-------------|
B|--x-x-x-x---4--4--4--2--4--4--x-x-x-x--4--4--4--2--4--5--5-5-5-------------|
G|--x-x-x-x---4--4--4--3--4--4--x-x-x-x--4--4--4--3--4--4--4-4-4-------------|
D|--x-x-x-x---6--6--6--4--6--6--x-x-x-x--6--6--6--4--6-----------------------|
A|--x-x-x-x---6--6--6--4--6--6--x-x-x-x--6--6--6--4--6-----------------------|
E|--x-x-x-x---4--4--4--2--4--4--x-x-x-x--4--4--4--2--4-----------------------|


PreChorus:

Both Guitars:
e|-----------------------------------------------------------------------------|
B|-----------------------------------------------------------------------------|
G|-------------8888-6666------------------------------8888-6666----------------|
D|---22222222-8888-6666-666666666666-4444-22222222-8888-4444-------------------|
A|---22222222-6666-4444-666666666666-4444-22222222-6666-4444-------------------|
E|---00000000------------444444444444-2222-00000000----------------------------|

e|-------------------------------------------------------------------------------|
B|-------------------------------------------------------------------------------|
G|-------------------------------------------------------------------------------|
D|--666666666666---x-------------------------------------------------------------|
A|--666666666666---x\--------(pick slide)----------------------------------------|
E|--444444444444---x\------------------------------------------------------------|

Chorus:

e|-----------------------------------------------------------------------------|
B|-----------------------------------------------------------------------------|
G|--444444444444-6666-888888888888--9--9--9--9-44444444-33333333---------------|
D|--666666666666-8888-999999999999-11-11-11-11-66666666-44444444---------------|
A|-----------------------------------------------------------------------------|
E|-----------------------------------------------------------------------------|

e|-----------------------------------------------------------------------------|
B|-----------------------------------------------------------------------------|
G|--1111111111111111-------(repeat)--------------------------------------------|
D|--2222222222222222--------------------5----8---------------------------------|
A|----------------------------------------3----8-------------------------------|
E|----------------------------------------3----6-------------------------------|

Interlude:

Guitar 1
e|-----------------------------------------------------------------------------|
B|-----------------------------------------------------------------------------|
G|--444444444444-6666-888888888888--9--9--9--9-44444444-33333333---------------|
D|--666666666666-8888-999999999999-11-11-11-11-66666666-44444444---------------|
A|-----------------------------------------------------------------------------|
E|-----------------------------------------------------------------------------|

e|-----------------------------------------------------------------------------|
B|-----------------------------------------------------------------------------|
G|--11111111-------------------------------------------------------------------|
D|--22222222-------------------------------------------------------------------|
A|-----------------------------------------------------------------------------|
E|-----------------------------------------------------------------------------|

                                                                                         
                         Repeat

Guitar 2:

e|-----------------------------------------------------------------------------|
B|-----------------------------------------------------------------------------|
G|--4444444444444444 (repeat)-44444444-22222222-000000000000000----------------|
D|-----------------------------------------------------------------------------|
A|-----------------------------------------------------------------------------|
E|-----------------------------------------------------------------------------|
                                                                                         
                         Repeat
Chorus:

e|-----------------------------------------------------------------------------|
B|-----------------------------------------------------------------------------|
G|--444444444444-6666-888888888888--9--9--9--9-44444444-33333333---------------|
D|--666666666666-8888-999999999999-11-11-11-11-66666666-44444444---------------|
A|-----------------------------------------------------------------------------|
E|-----------------------------------------------------------------------------|

e|-----------------------------------------------------------------------------|
B|-----------------------------------------------------------------------------|
G|--1111111111111111-----------------------Repeat 3x---------------------------|
D|--2222222222222222-----------------------------------------------------------|
A|-----------------------------------------------------------------------------|
E|-----------------------------------------------------------------------------|

Outro
Guitar 1
e|-----------4---x-x---x---4---x-x---x---4---x-x---x--4---x-x---x-------------|
B|-----------4\--x-x---x---4\--x-x---x---4\--x-x---x--4\--x-x---x-------------|
G|-----------4\--x-x---x---4\--x-x---x---4\--x-x---x--4\--x-x---x-------------|
D|---5--8----6\--x-x---x---6\--x-x---x---6\--x-x---x--6\--x-x---x-------------|
A|---5--8----6\--x-x---x---6\--x-x---x---6\--x-x---x--6\--x-x---x-------------|
E|---3--6----4\--x-x---x---4\--x-x---x---4\--x-x---x--4\--x-x---x-------------|

Guitar 2:
constant plucking until end
e|-----------------------------------------------------------------------------|
B|-----------------------------------------------------------------------------|
G|------------44444444444444444444444444444444444------------------------------|
D|------------66666666666666666666666666666666666------------------------------|
A|-----------------------------------------------------------------------------|
E|-----------------------------------------------------------------------------|

Both guitars end on:
e|----4------------------------------------------------------------------------|
B|----4------------------------------------------------------------------------|
G|----4------------------------------------------------------------------------|
D|----6------------------------------------------------------------------------|
A|----6------------------------------------------------------------------------|
E|----4------------------------------------------------------------------------|

| /  slide up
| \  slide down
| h  hammer-on
| p  pull-off
| ~  vibrato
| +  harmonic
| x  Mute note
=============================================================
Tap to rate this tab
 
# A B C D E F G H I J K L M N O P Q R S T U V W X Y Z