Song name
# A B C D E F G H I J K L M N O P Q R S T U V W X Y Z

Taking Back Sunday - What It Feel Like To Be A Ghost tab

Drop D tuning (you can play this in standard just play bottom string 2 higher)

Lead intro (I think this is Fred)
-------------------------------------------------|
-------------------------------------------------|
-------------------------------------------------|
-------------------------------------------------| x 4
---9---9--------9----9----4---4------4--4--------|
-6—-6----6-6-6----6---6-2---2---2-2-2--2--2------|
on the 2nd  time bend the 4 and don’t play the 2

Backing comes in on this
-----
-----
-----
-2—(let ring)
-2--
-2--

Backing intro
------------------------------------------------------------------|
------------------------------------------------------------------|
------------------------------------------------------------------|
-6-6-6-6-6-6-6-6-6-6-6-6-6-6-6-6--2-2-2-2-2-2-2-2-2-2-2-2-2-2-2-2-| (x2)
-6-6-6-6-6-6-6-6-6-6-6-6-6-6-6-6--2-2-2-2-2-2-2-2-2-2-2-2-2-2-2-2-|
-6-6-6-6-6-6-6-6-6-6-6-6-6-6-6-6--2-2-2-2-2-2-2-2-2-2-2-2-2-2-2-2-|

Verses (rhythm, palm muted)
i think he actually plays this four times on the forth time start lifting off palm 
before the chorus
-------------------------------------------------------------------------|
-------------------------------------------------------------------------|
-------------------------------------------------------------------------|
-4-4-4-4-4-4-4-4-4-4-4-4-4-4-4-4-4-4-4-4-4-4-4-4-4-4-4-4-4-4-4-4-4-4-4-4-|
-4-4-4-4-4-4-4-4-4-4-4-4-4-4-4-4-4-4-4-4-4-4-4-4-4-4-4-4-4-4-4-4-4-4-4-4-|
-4-4-4-4-4-4-4-4-4-4-4-4-4-4-4-4-4-4-4-4-4-4-4-4-4-4-4-4-4-4-4-4-4-4-4-4-|

but you can play this and it sounds good (this is what bass plays)
-----------------------------------|
-----------------------------------|
-----------------------------------|
-6-6-6-2-2-2-6-6-6-2-2-2-6-6-6-2-2-|
-6-6-6-2-2-2-6-6-6-2-2-2-6-6-6-2-2-| (cn do it on the E string n it sounds ok)
-6-6-6-2-2-2-6-6-6-2-2-2-6-6-6-2-2-|

then
------------------------------------|
------------------------------------|
------------------------------------|
4-4-4-4-4-4-4-4-4-4-4-4-4-4-4-4-4-4-|
4-4-4-4-4-4-4-4-4-4-4-4-4-4-4-4-4-4-|
4-4-4-4-4-4-4-4-4-4-4-4-4-4-4-4-4-4-|


Lead plays that twice then play this

(palm muted)3 times
-------------------------------------------|
-------------------------------------------|
-9-9-9--8-8-8---------9-9-9--8-8-8---------|
--------------9-9-9------------------9-9-9-|
-------------------------------------------|
-------------------------------------------|

then
----------------------------------------------|
----------------------------------------------|
-9-9-9-8-8-8-6-6-6--9-9-9-8-8-8-6-6-6---------|
----------------------------------------------|
----------------------------------------------|
----------------------------------------------|

just before chorus lead plays
---------------------|
---------------------|
---------------------|
---------------------|
---4---4-------------|
-2---2---2-----------|


Chorus (lead)
-----------------------------------------------------------------|
-9-9-9-9-9-9-9-9-7-7-7-7-7-7-7-7---------------------------------|
-8-8-8-8-8-8-8-8-8-8-8-8-8-8-8-8---------------------------------|
-----------------------------------------------------------------|
---------------------------------------------4---4-------4--4----|
-------------------------------------------2---2—--2-2-2---2---2-|

-----------------------------------------------------------------|
-9-9-9-9-9-9-9-9-7-7-7-7-7-7-7-7---------------------------------|
-8-8-8-8-8-8-8-8-8-8-8-8-8-8-8-8---------------------------------|
---------------------------------------------------------------2-|
---------------------------------------------4---4-------4--4--2-|
-------------------------------------------2---2—--2-2-2---2---2-|

then
------------------------------------------------------------------|
------------------------------------------------------------------|
------------------------------------------------------------------|
-6-6-6-6-6-6-6-6-6-6-6-6-6-6-6-6--2-2-2-2-2-2-2-2-2-2-2-2-2-2-2-2-|
-6-6-6-6-6-6-6-6-6-6-6-6-6-6-6-6--2-2-2-2-2-2-2-2-2-2-2-2-2-2-2-2-|
-6-6-6-6-6-6-6-6-6-6-6-6-6-6-6-6--2-2-2-2-2-2-2-2-2-2-2-2-2-2-2-2-|

then
--------------------------------------------------------|
--------------------------------------------------------|
--------------------------------------------------------|
-6-6-6-6-6-6-6-6-6-6-6-6-6-6-6-6----------------------2-|
-6-6-6-6-6-6-6-6-6-6-6-6-6-6-6-6----4---4-------4--4--2-|
-6-6-6-6-6-6-6-6-6-6-6-6-6-6-6-6--2---2—--2-2-2---2---2-|

backing plays this 4 times
------------------------------------------------------------------|
------------------------------------------------------------------|
------------------------------------------------------------------|
-6-6-6-6-6-6-6-6-6-6-6-6-6-6-6-6--2-2-2-2-2-2-2-2-2-2-2-2-2-2-2-2-|
-6-6-6-6-6-6-6-6-6-6-6-6-6-6-6-6--2-2-2-2-2-2-2-2-2-2-2-2-2-2-2-2-|
-6-6-6-6-6-6-6-6-6-6-6-6-6-6-6-6--2-2-2-2-2-2-2-2-2-2-2-2-2-2-2-2-|

Then Verse plays the same as before apart from the first few seconds where just rhythm 
plays.
Chorus same as before
But lead plays this on the 4th time to end the chorus into the interlude
----------------------------------|
----------------------------------|
----------------------------------|
--------------------------------2-|
---4--4-------4---4-------4---4-2-|
-2--2---2-2-2---2---2-2-2---2---2-|

Interlude (lead he uses an effect am not sure exactly what it is but a mix of delay and 
works)
Listen to the song to get the timing
-0-0-----------------------------------------|
-0-0--------7----------------------0-0-------|
-3s4-------------------------------7s8-------|
----------9-----9-8-9h8----------------------|
---------------------------------------------|
---------------------------------------------|

then
-------------------------------------------------------------------------|
--------------------------------------------7---------7------------------|
-8-8-8-8-8-8-8-8-8-8-8-8-8-8-8-8-8----8—8-8-8-8-8-8-8----8-8-8-8-8-8-8-8-|
-------------------------------------------------------------------------|
-------------------------------------------------------------------------|
-------------------------------------------------------------------------|


(backing plays this same time as lead, same effect as lead let the chords ring out)
-0-0----------------------------------------------------------------------|
-0-0-----------------------------------------------------------0-0--------|
-3s4-----------------------------------------------------------7s8--------|
--------------------------------------------------------------------------|
--------------------------------------------------------------------------|
--------------------------------------------------------------------------|

then lead plays
---------------------------------------------------------------------------------------------------------------------------------|
---------------------------------------------------------------------------------------------------------------------------------|
-8-8-8-8-8-8-8-8-8-8-8-8-8-9-9-9-6-6-6-6-6-6-6-6-6-6-6-6-6-6s4-4s8-8-8-8-8-8-8-8-8-8-8-8-8-9-9-9-4-4-4-4-4-4-4-4-4-4-4-4-4-4-4-4-|
---------------------------------------------------------------------------------------------------------------------------------|
---------------------------------------------------------------------------------------------------------------------------------|
---------------------------------------------------------------------------------------------------------------------------------|

rhythm plays this at same time
-0-0-----------------------------------------------------------------------------------------------------------------------------|
-0-0----------------------------------------------------------------------------------------------------------------0-0----------|
-3s4----------------------------------------------------------------------------------------------------------------7s8----------|
---------------------------------------------------------------------------------------------------------------------------------|
---------------------------------------------------------------------------------------------------------------------------------|
---------------------------------------------------------------------------------------------------------------------------------|

then lead plays
-------------------------------------------------------------------------------------------------|
-------------------------------------------------------------------------------------------------|
-8-8-8-8-8-8-8-8-8-8-8-8-8-9-9-9-6-6-6-6-6-6-6-6-6-6-6-6-6-6s4-4s8-8-8-8-8-8-8-8-8-8-8-8-8-9-9-9-|
-------------------------------------------------------------------------------------------------|
-------------------------------------------------------------------------------------------------|
-------------------------------------------------------------------------------------------------|

rhythm plays this at same time (let chords ring)
-0-0---------------------------------------------------------------------------------------------|
-0-0---------------------------------------------------------------------------------------------|
-3s4---------------------------------------------------------------------------------------------|
-------------------------------------------------------------------------------------------------|
-------------------------------------------------------------------------------------------------|
-------------------------------------------------------------------------------------------------|

then they both play these octaves (back to distortion)
------------------------------------------------------------------------------|
------------------------------------------------------------------------------|
-4-4-4-4-6-6-6-6-8-8-8-8-9-9-9-9--9-9-9-9-11-11-11-11-12-12-12-12-13-13-13-13-|
------------------------------------------------------------------------------|
-2-2-2-2-4-4-4-4-6-6-6-6-7-7-7-7--7-7-7-7-9--9--9--9--10-10-10-10-11-11-11-11-|
------------------------------------------------------------------------------|

then lead plays
-------------------------------------------------|
-------------------------------------------------|
-------------------------------------------------|
-----------------------------------------------2-|
---9---9--------9----9-------9---9-------9--9--2-|
-6—-6----6-6-6----6---6----6---6---6-6-6--6----2-|

Then chorus as before
but lead finishes on
-----------------------|
-----------------------|
-----------------------|
---------------------6-|
---9---9-------9--9--6-|
-6---6---6-6-6--6----6-|

i don't mind you putting my tab on other sites just give me credit for writing it
anyways any problems email me at mrmonkey_666@hotmail.com
Tap to rate this tab
# A B C D E F G H I J K L M N O P Q R S T U V W X Y Z