Song name
# A B C D E F G H I J K L M N O P Q R S T U V W X Y Z

Taking Back Sunday - Twenty-twenty Surgery tab

Song: "Twenty Twenty Surgery"
Artist: Taking Back Sunday
Album: LOUDER NOW
Tabbed By: Chelsea

Tuning: Half step

h - Hammer on
p - Pull off
x - mute
<>- hamonic/mute
/ - slide
~ - let ring
() - notes I use playing my version

*****Guitar One:*****

Intro:
|---------------------------------------|x3
|-10------9--9-------5---5--------------|
|--x---x--x--x----x--x-x-x-x-6-6/-------|
|-11---x--9--9---(7)-7-x-7-x-7-7--------|
|-------------------(7)x(7)x-4-4/-------|
|---------------------------------------|

---------------------------------------------------
Or, if that's too hard you can try this.           |
Fred plays something similar to the first version. |
                                                   |
|--------------------------|                      ---|
|--------------------------|                      ---|
|-14--x-13-13-x-9-x-9-x-6-6|                      ---|
|--x--x--x--x-x-x-x-x-x-x-x|                      ---|
|-12--x-11-11-x-7-x-7-x-4-4|                      ---|
|--------------------------|                      ---|
-----------------------------------------------------|


|------------------------------------------|
|------------------------------------------|
|-16-16-16-12-12-12-11-11-11-7-7-7-7-7-7-7-|
|--x--x--x--x--x--x--x--x--x-x-x-x-x-x-x-x-|
|-14-14-14-10-10-10--9--9--9-5-5-5-5-5-5-5-|
|------------------------------------------|


Verse:
(Clean)
Listen for when to come in.
|-------4------4-------4--------------4------4-------4--------|x2
|---0------0-------0------0---0---0------0-------0------0---0-|
|-6---6------6-------6------6---6---6------6-------6------6---|
|-------------------------------------------------------------|
|-------------------------------------------------------------|
|-------------------------------------------------------------|

Pre=chorus A:
|-----------------------------------------------------------------|
|-----------------------------------------------------------------|
|-7-7-7-7-7-7-7-7-7-7-7-7-7-7-7-7-9-9-9-9-9-9-9-9-9-9-9-9-9-9-9-9-|
|-7-7-7-7-7-7-7-7-7-7-7-7-7-7-7-7-9-9-9-9-9-9-9-9-9-9-9-9-9-9-9-9-|
|-5-5-5-5-5-5-5-5-5-5-5-5-5-5-5-5-7-7-7-7-7-7-7-7-7-7-7-7-7-7-7-7-|
|-----------------------------------------------------------------|

**Verse

Pre-Chorus B:

|---------------------------------------------------------------------------------|
|---------------------------------------------------------------------------------|
|-----7-----7---7-----7-----7---7--------9--------9-----9--------9--------9-----9-|
|---7-----7---7-----7-----7---7-------7--------7-----7--------7--------7-----7----|
|-9-----9---------9-----9----------7--------7--------------7--------7-------------|
|---------------------------------------------------------------------------------|


Chorus:
|-------------------------------------------------------------------------------------------------|
|-------------------------------------------------------------------------------------------------|
|---------------------------------6-6-6-6-6-6-6-6-6-6-6-6-6-6-6-6---------------------------------|
|-7-7-7-7-7-7-7-7-7-7-7-7-7-7-7-7-6-6-6-6-6-6-6-6-6-6-6-6-6-6-6-6-4-4-4-4-4-4-4-4-4-4-4-4-4-4-4-4-|
|-7-7-7-7-7-7-7-7-7-7-7-7-7-7-7-7-4-4-4-4-4-4-4-4-4-4-4-4-4-4-4-4-4-4-4-4-4-4-4-4-4-4-4-4-4-4-4-4-|
|-5-5-5-5-5-5-5-5-5-5-5-5-5-5-5-5---------------------------------2-2-2-2-2-2-2-2-2-2-2-2-2-2-2-2-|


|-------------------------------------|
|-12p0-12\8p0-8p0-8p7p0-7\3p0-3b------|
|-------------------------------------|
|-------------------------------------|
|-------------------------------------|
|-------------------------------------|

**Verse

You can either continue with the clean strumming, or you can do this.

"We'll get you home in time..."
|-----12------12-------12------12-------12------12-------12------12---|
|-----12------12-------12------12-------12------12-------12------12---|
|---------------------------------------------------------------------|
|---------------------------------------------------------------------|
|---------------------------------------------------------------------|
|---------------------------------------------------------------------|

**Pre-Chorus A
**Pre-Chorus B
**Chorus

Breakdown:


|-------------------------------------------------------------------------------------------------|
|-------------------------------------------------------------------------------------------------|
|-11----11-11----11----11-11----11----11----11-11-13----13-13----13----13-13----13----13----13-13-|
|--x-----x--x-----x-----x--x-----x-----x-----x--x--x-----x--x-----x-----x--x-----x-----x-----x--x-|
|--9-----9--9-----9-----9--9-----9-----9-----9--9-11----11-11----11----11-11----11----11----11-11-|
|-------------------------------------------------------------------------------------------------|

|-------------------------------------------------------------------------------------------------|
|-------------------------------------------------------------------------------------------------|
|-14----14-14----14----14-14----14----14----14-14-14----14-14----14----14-14----14----14----14-14-|
|--x-----x--x-----x-----x--x-----x-----x-----x--x--x-----x--x-----x-----x--x-----x-----x-----x--x-|
|-12----12-12----12----12-12----12----12----12-12-12----12-12----12----12-12----12----12----12-12-|
|-------------------------------------------------------------------------------------------------|

|-------------------------------------------------------------------------------------------------------------------|
|-------------------------------------------------------------------------------------------------------------------|
|-18--18-18--18--18-18--18--18--18-18-18--18-18--18--18-------------------------------------------------------------|
|--x---x--x---x---x--x---x---x---x--x--x---x--x---x---x-------------------------------------------------------------|
|-16--16-16--16--16-16--16--16--16-16-16--16-16--16--16-------------------------------------------------------------|
|-------------------------------------------------------<2>-<2>-<3>-<3>-<4>-<4>-<5>-<5>-<6>-<6>-<7>-<7>-<7>-<8>-<9>-|
Don't worry about strumming the muted strings perfectly. if you just make your way up 
neck it'll sound fine.


**Chorus


Outro:
|---------------------------------------------------------------------------------|
|-10-10-10-10--9--9--9--9-5-5-5-5---------10-10-10-10--9--9--9--9-5-5-5-5---------|
|--x--x--x--x--x--x--x--x-x-x-x-x-6-6-6-6--x--x--x--x--x--x--x--x-x-x-x-x-6-6-6-6-|
|-11-11-11-11-11-11-11-11-7-7-7-7-x-x-x-x-11-11-11-11-11-11-11-11-7-7-7-7-x-x-x-x-|
|---------------------------------4-4-4-4---------------------------------4-4-4-4-|
|---------------------------------------------------------------------------------|


|--------------------------------------------------------------------------------|
|-10-10-10-10--9--9--9--9-5-5-5-5---------------------------7-7-7----------------|
|--x--x--x--x--x--x--x--x-x-x-x-x-6-6-6-6-16-16-16-12-12-12-x-x-x-7-7-7-7-7-7-7--|
|-11-11-11-11-11-11-11-11-7-7-7-7-x-x-x-x--x--x--x--x--x--x-5-5-5-x-x-x-x-x-x-x--|
|---------------------------------4-4-4-4-14-14-14-10-10-10-------5-5-5-5-5-5-5--|
|--------------------------------------------------------------------------------|

|-0~----|
|-x~----|
|-3~----|
|-4~----|
|-4~----|
|-2~----|
(Light distortion)


*****Guitar Two:*****

Intro
|----------------------------------------------|
|----------------------------------------------|
|----------------------------------------------|
|--4-4-4--4--4-4--4--4-4-4-4-4-4--4-4-4--------|
|--4-4-4--4--4-4--4--4-4-4-4-4-4--4-4-4-|------|
|--2-2-2--2--2-2--2--2-2-2-2-2-2--2-2-2-|   ---|x2
                                             |
|----------------------|------------------|----|
|----------------------|-----------------------|
|----------------------|-7-7-7-7-7--7-7-7------|
|--7-7-7--7--7-7--7--7-|-7-7-7-7-7--7-7-7------|
|--7-7-7--7--7-7--7--7-|-5-5-5-5-5--5-5-5------|
|--5-5-5--5--5-5--5--5-|-----------------------|


Verse:
Rest.

Pre Chorus A:
|-----------------------------------------------------------------|
|-----------------------------------------------------------------|
|-7-7-7-7-7-7-7-7-7-7-7-7-7-7-7-7-9-9-9-9-9-9-9-9-9-9-9-9-9-9-9-9-|
|-7-7-7-7-7-7-7-7-7-7-7-7-7-7-7-7-9-9-9-9-9-9-9-9-9-9-9-9-9-9-9-9-|
|-5-5-5-5-5-5-5-5-5-5-5-5-5-5-5-5-7-7-7-7-7-7-7-7-7-7-7-7-7-7-7-7-|
|-----------------------------------------------------------------|


**Verse:


"Close our eyes and let go..."
|-----------------------------------------------------------------|
|-7---7---7---7---7p5-5---5---5---7---7---7---7---7p5-5---5-------|
|-6---6---6---6---6---6---6---6---6---6---6---6---6---6---6-6-6-6-|
|-------------------------------------------------------------7-7-|
|-----------------------------------------------------------------|
|-----------------------------------------------------------------|


**Pre-Chorus A


Pre-Chorus B:
|---------------------------------------------------------------------------------|
|---------------------------------------------------------------------------------|
|---------------------------------------------------------------------------------|
|-4-4-4-4-4-4-4-4-4-4-4-4-4-4-4-4--6--6--6--6--6--6--6--6--6--6--6--6--6--6--6--6-|
|-4-4-4-4-4-4-4-4-4-4-4-4-4-4-4-4--6--6--6--6--6--6--6--6--6--6--6--6--6--6--6--6-|
|-2-2-2-2-2-2-2-2-2-2-2-2-2-2-2-2--4--4--4--4--4--4--4--4--4--4--4--4--4--4--4--4-|


Chorus:
|-------------------------------------------------------------------------------------------------|
|-------------------------------------------------------------------------------------------------|
|---------------------------------6-6-6-6-6-6-6-6-6-6-6-6-6-6-6-6---------------------------------|
|-7-7-7-7-7-7-7-7-7-7-7-7-7-7-7-7-6-6-6-6-6-6-6-6-6-6-6-6-6-6-6-6-4-4-4-4-4-4-4-4-4-4-4-4-4-4-4-4-|
|-7-7-7-7-7-7-7-7-7-7-7-7-7-7-7-7-4-4-4-4-4-4-4-4-4-4-4-4-4-4-4-4-4-4-4-4-4-4-4-4-4-4-4-4-4-4-4-4-|
|-5-5-5-5-5-5-5-5-5-5-5-5-5-5-5-5---------------------------------2-2-2-2-2-2-2-2-2-2-2-2-2-2-2-2-|


|-------------------------------------|
|-------------------------------------|
|-------------------------------------|
|--5-5--5-5-5-5-5-5-5-5-5-5-5-5---5-5-|
|--5-5--5-5-5-5-5-5-5-5-5-5-5-5---5-5-|
|--3-3--3-3-3-3-3-3-3-3-3-3-3-3---3-3-|


Verse:
|----------------------|xwhole verse
|----------------------|
|----------------------|
|----------------------|
|-2-4-4----------4-7-7-|
|-0-2-2----------2-5-5-|

**Pre-Chorus A
**Pre-Chorus B
**Chorus
**Intro


Breakdown:
|-0~-<4>--<5>--------|
|-0~-----------------|
|-9~------------<4>--|
|-9~-----------------|
|-7~-----------------|
|--------------------|

I couldn't really tell exactly what was going on in the background, but this sounds fine 
you let ring.

|-14----14----14----14----14----14----14----14----14----14----14----14----14----14----14----14----|
|----19----19----19----19----19----19----19----19----19----19----19----19----19----19----19----19-|
|-------------------------------------------------------------------------------------------------|
|-------------------------------------------------------------------------------------------------|
|-------------------------------------------------------------------------------------------------|
|-------------------------------------------------------------------------------------------------|
|

|-------------------------------------------------------------------------|
|-------------------------------------------------------------------------|
|-------------------------------------------------------------------------|
|--4---4--4---4---4--4---4---4---4--4--4---4--4---4---4--4--4--4---4---4--|
|--4---4--4---4---4--4---4---4---4--4--4---4--4---4---4--4--4--4---4---4--|
|--2---2--2---2---2--2---2---2---2--2--2---2--2---2---2--2--2--2---2---2--|

**Chorus


Outro:
|-----------------------------------------------------------------------|
|-----------------------------------------------------------------------|
|---------------------------------6-6-6-6-6-6-6-6-6-6-6-6-6-6-6-6-------|
|-7-7-7-7-7-7-7-7-7-7-7-7-7-7-7-7-6-6-6-6-6-6-6-6-6-6-6-6-6-6-6-6-------|
|-7-7-7-7-7-7-7-7-7-7-7-7-7-7-7-7-4-4-4-4-4-4-4-4-4-4-4-4-4-4-4-4-------|
|-5-5-5-5-5-5-5-5-5-5-5-5-5-5-5-5---------------------------------|-----|
                                                                      |x2
|-----------------------------------------------------------------|-----|
|-----------------------------------------------------------------------|
|-----------------------------------------------------------------------|
|-4-4-4-4-4-4-4-4-4-4-4-4-4-4-4-4-5-5-5-5-5-5-5-5-5-5-5-5-5-5-5-5-------|
|-4-4-4-4-4-4-4-4-4-4-4-4-4-4-4-4-5-5-5-5-5-5-5-5-5-5-5-5-5-5-5-5-------|
|-2-2-2-2-2-2-2-2-2-2-2-2-2-2-2-2-3-3-3-3-3-3-3-3-3-3-3-3-3-3-3-3-------|
Tap to rate this tab
 
# A B C D E F G H I J K L M N O P Q R S T U V W X Y Z