Guitaretab - guitar tabs
Song name
# A B C D E F G H I J K L M N O P Q R S T U V W X Y Z

Taking Back Sunday - Ill Let You Live tab

yo, this is the lazy way to play the song. if you don't like it i recomend blinkman5's

. = palm mute
& = stress note
\ = slide up or down
~ = let ring

(intro)
guitar 2
|------------|    |------|
|------------|    |------|
|------------|    |------|
|-6-88-11-88-|(x9)|-6-88-|(x1)
|-6-88-11-88-|    |-6-88-|
|-6-88-11-88-|    |-6-88-|


(verse)
guitar 1
|-1/4--4----4/64----4/8-4----4-4/11--9-8-|
|------------------------------------------|
|------------------------------------------|(x2)
|------------------------------------------|
|------------------------------------------|
|------------------------------------------|

(pre chorus)
both
|----------------------------------------------------------|
|----------------------------------------------------------|
|----------------------------------------------------------|
|-444-------444----1-1-1-3--444-------444--1-1-1-1-1-1-1-1-|
|-444-------444----1-1-1-3--444-------444--1-1-1-1-1-1-1-1-|
|-444-------444----1-1-1-3--444-------444--1-1-1-1-1-1-1-1-|
                                           ................
(play verse)
(play pre chorus)

(chorus)
guitar 2
|-----------------------------------------------------------------|
|-----------------------------------------------------------------|
|-----------------------------------------------------------------|
|-88-8-66-6-11-11-11-44-4--8888666611-11-11-114444-33333344446666-|
|-88-8-66-6-11-11-11-44-4--8888666611-11-11-114444-33333344446666-|
|-88-8-66-6-11-11-11-44-4--8888666611-11-11-114444-33333344446666-|

guitar 1
|------------------------------------------------------------|
|------------------------------------------------------------|
|------------------------------------------------------------|
|-88-8-66-6-11-11-11-44-4--8888-10-10-10-10-11-11-11-11-4444-|
|-88-8-66-6-11-11-11-44-4--8888-10-10-10-10-11-11-11-11-4444-|
|-88-8-66-6-11-11-11-44-4--8888-10-10-10-10-11-11-11-11-4444-|

----------------|
----------------|
----------------|
-33333344446666-|
-33333344446666-|
-33333344446666-|
[ Tab from: http://www.guitaretab.com/t/taking-back-sunday/72442.html ]
(solo 1)
both                                               &
|-13-13-13-13-13-16-16-16-16-13-13-13\11-11-11\9-9-9-8-9-11-9-11-13\-|
|-13-13-13-13-13-16-16-16-16-13-13-13\11-11-11\9-9-9-8-9-11-9-11-13\-|
|--------------------------------------------------------------------|
|--------------------------------------------------------------------|
|--------------------------------------------------------------------|
|--------------------------------------------------------------------|

(play verse)
(play pre chorus)
(play chorus X2)

(short intro)
|------------|
|------------|
|------------|
|-6-88-11-88-|(x4)
|-6-88-11-88-|
|-6-88-11-88-|

(break down!!!)

guitar 2
|---------------------|
|---------------------|
|---------------------|
|-888-33333-666-33333-|(x8)
|-888-33333-666-33333-|
|-888-33333-666-33333-|

guitar 1
|-----------------------------------------------------------|
|-----------------------------------------------------------|
|-----------------------------------------------------------|
|-/15(x6)-18(x2)-15(x4)-13(x2)-11(x2)-10(x1)/11(x1)/15(x12)-|(x4)
|-/13(x6)-16(x2)-13(x4)-11(x2)--9(x2)--8(x1)/-9(x1)/13(x12)-|
|-----------------------------------------------------------|
 

(end part)
guitar 2
|------------------------------------------|    |----------------------|
|------------------------------------------|    |----------------------|
|------------------------------------------|    |----------------------|
|-8888-10-10-10-10-11-11-11-11-13-13-13-13-|(x3)|-33333333-4444-3333-8~|
|-8888-10-10-10-10-11-11-11-11-13-13-13-13-|    |-33333333-4444-3333-8~|
|-8888-10-10-10-10-11-11-11-11-13-13-13-13-|    |-33333333-4444-3333-8~|

guitar 1
|------------------------------------------|
|------------------------------------------|
|------------------------------------------|
|-8888-10-10-10-10-11-11-11-11-13-13-13-13-|(x3)
|-8888-10-10-10-10-11-11-11-11-13-13-13-13-|
|-8888-10-10-10-10-11-11-11-11-13-13-13-13-|

|----------------------------------------------------|
|----------------------------------------------------|
|----------------------------------------------------|
|-15\13\15\16\15\13\15\16-18-18-18-18-15-15-15-15-20~|
|-15\13\15\16\15\13\15\16-18-18-18-18-15-15-15-15-20~|
|-15\13\15\16\15\13\15\16-18-18-18-18-15-15-15-15-20~|
Related for Ill Let You Live tab