Song name
# A B C D E F G H I J K L M N O P Q R S T U V W X Y Z

Taking Back Sunday - Timberwovles At New Jersey Acoustic tab

(Intro) X1

-----00--00--00--00-0-0---00--00--00--00-0-0---00--00--00--00-0-0------------------------|
-----11--11--11--11-1-1---33--33--33--33-3-3---11--11--11--11-1-1---00--00--00--00-0-0---|
-----00--00--00--00-0-0---00--00--00--00-0-0---00--00--00--00-0-0---11--11--11--11-1-1---|
-----22--22--22--22-2-2---00--00--00--00-0-0---22--22--22--22-2-2---00--00--00--00-0-0---|
-----00--00--00--00-0-0---22--22--22--22-2-2---33--33--33--33-3-3---22--22--22--22-2-2---|
E ------------------------------------------------------------------00--00--00--00-0-0---|

(Verse 1) X2

-------------------------------------------------------------------------------------------|
-------------------------------------------------------------------------------------------|
------------------------------------------------22--22--22--22--2-2---44--44--44--44--4-4--|
----33--33--33--33--3-3---55--55--55--55--5-5---22--22--22--22--2-2---44--44--44--44--4-4--|
----33--33--33--33--3-3---55--55--55--55--5-5---00--00--00--00--0-0---22--22--22--22--2-2--|
E --11--11--11--11--1-1---33--33--33--33--3-3----------------------------------------------|

(Chorus)

-----------------------------------------------------------------------------------------|
-----------------------------------------------------------------------------------------|
----22222222---55555555------------------------------------------------------------------|
----22222222---55555555---33333333---55555555--------------------------------------------|
----00000000---33333333---33333333---55555555--------------------------------------------|
E ------------------------11111111---33333333--------------------------------------------|


-----------------------------------------------------------------------------------------|
-----------------------------------------------------------------------------------------|
----22222222---55555555------------------------------------------------------------------|
----22222222---55555555---55555555---33333333--------------------------------------------|
----00000000---33333333---55555555---33333333--------------------------------------------|
E ------------------------33333333---11111111--------------------------------------------|

(Verse 2) X2

-------------------------------------------------------------------------------------------|
-------------------------------------------------------------------------------------------|
------------------------------------------------22--22--22--22--2-2---44--44--44--44--4-4--|
----33--33--33--33--3-3---55--55--55--55--5-5---22--22--22--22--2-2---44--44--44--44--4-4--|
----33--33--33--33--3-3---55--55--55--55--5-5---00--00--00--00--0-0---22--22--22--22--2-2--|
E --11--11--11--11--1-1---33--33--33--33--3-3----------------------------------------------|

(Chorus)

-----------------------------------------------------------------------------------------|
-----------------------------------------------------------------------------------------|
----22222222---55555555------------------------------------------------------------------|
----22222222---55555555---33333333---55555555--------------------------------------------|
----00000000---33333333---33333333---55555555--------------------------------------------|
E ------------------------11111111---33333333--------------------------------------------|


-----------------------------------------------------------------------------------------|
-----------------------------------------------------------------------------------------|
----22222222---55555555------------------------------------------------------------------|
----22222222---55555555---55555555---33333333--------------------------------------------|
----00000000---33333333---55555555---33333333--------------------------------------------|
E ------------------------33333333---11111111--------------------------------------------|

(Interlude) X8

-----------------------------------------0----|
-----------0---------0---------0-------1---1--|
---------5---5-----5---5-----5----------------|
----------------------------------------------|
-----0----------3-----------------0-----------|
E ------------------------3---------1---------|

(Interlude) Guitar 2 X6: This means the first guitar plays twice more silently

-----------------------------------------------------------------------------------------|
-----------------------------------------------------------------------------------------|
------2-----5----------------------------------------------------------------------------|
-----2-----5------5-----3----------------------------------------------------------------|
----0-----3------5-----3-----------------------------------------------------------------|
E --------------3-----1------------------------------------------------------------------|

(Verse 3) X4

-----------------------------------------------------------------------------------------|
-----------------------------------------------------------------------------------------|
----2-------5----------------------------------------------------------------------------|
----2-------5-------5--------3-----------------------------------------------------------|
----0-------3-------5--------3-----------------------------------------------------------|
E ------------------3--------1-----------------------------------------------------------|

(Endling) X2

-----------------------------------------------------------------------------------------|
-----------------------------------------------------------------------------------------|
----22222222---55555555------------------------------------------------------------------|
----22222222---55555555---55555555---33333333--------------------------------------------|
----00000000---33333333---55555555---33333333--------------------------------------------|
E ------------------------33333333---11111111--------------------------------------------|

(Endling) X2 Palm muted

-------------------------------------------------------------------------------------------|
-------------------------------------------------------------------------------------------|
------------------------------------------------22--22--22--22--2-2---44--44--44--44--4-4--|
----33--33--33--33--3-3---55--55--55--55--5-5---22--22--22--22--2-2---44--44--44--44--4-4--|
----33--33--33--33--3-3---55--55--55--55--5-5---00--00--00--00--0-0---22--22--22--22--2-2--|
E --11--11--11--11--1-1---33--33--33--33--3-3----------------------------------------------|
Tap to rate this tab
 
# A B C D E F G H I J K L M N O P Q R S T U V W X Y Z