Song name
# A B C D E F G H I J K L M N O P Q R S T U V W X Y Z

Taking Back Sunday - Youre So Last Summer Acoustic tab

-------------------------------------------------------------------------------
			     YOU'RE SO LAST SUMMER (ACOUSTIC) - Taking Back Sunday
-------------------------------------------------------------------------------
Tabbed by: Jon Klein
Email: jcklein86@hotmail.com

Tuning: Standard

Hopefully this is all right but if it's not e-mail me at jcklein86@hotmail.com and I'll 
it right.

Intro:
e-------2-2-2-2-2-2-2-2-2-2-2-2-0-------2-2-2-2-2-2-2-2-2-2-2-2---|
B-5-5-5-3-3-3-3-3-3-3-3-3-3-3-3-2-5-5-5-3-3-3-3-3-3-3-3-3-3-3-3---|
G-6-6-6-2-2-2-2-2-2-2-2-2-2-2-2-2-6-6-6-2-2-2-2-2-2-2-2-2-2-2-2---|
D-6-6-6-0-0-0-0-0-0-0-0-0-0-0-0-2-6-6-6-0-0-0-0-0-0-0-0-0-0-0-0---|
A-4-4-4-------------------------0-4-4-4---------------------------|
E-----------------------------------------------------------------|

Verse 1:
e-------2-2-2-2-2-2-2-2-2-2-2-2-0-------2-2-2-2-2-2-2-2-2-2-2-2---|
B-5-5-5-3-3-3-3-3-3-3-3-3-3-3-3-2-5-5-5-3-3-3-3-3-3-3-3-3-3-3-3---|
G-6-6-6-2-2-2-2-2-2-2-2-2-2-2-2-2-6-6-6-2-2-2-2-2-2-2-2-2-2-2-2---|
D-6-6-6-0-0-0-0-0-0-0-0-0-0-0-0-2-6-6-6-0-0-0-0-0-0-0-0-0-0-0-0---|
A-4-4-4-------------------------0-4-4-4---------------------------|
E-----------------------------------------------------------------|

e---------------------------------3-3-3-3-3-3-3-3-3-3-3-3-3-3-3-3-|
B-3-3-3-3-3-3-3-3-3-3-3-3-3-3-3-3-3-3-3-3-3-3-3-3-3-3-3-3-3-3-3-3-|
G-4-4-4-4-4-4-4-4-4-4-4-4-4-4-4-4-4-4-4-4-4-4-4-4-4-4-4-4-4-4-4-4-|
D-4-4-4-4-4-4-4-4-4-4-4-4-4-4-4-4-5-5-5-5-5-5-5-5-5-5-5-5-5-5-5-5-|
A-2-2-2-2-2-2-2-2-2-2-2-2-2-2-2-2-5-5-5-5-5-5-5-5-5-5-5-5-5-5-5-5-|
E---------------------------------3-3-3-3-3-3-3-3-3-3-3-3-3-3-3-3-|

e-------2-2-2-2-2-2-2-2-2-2-2-2-0-------2-2-2-2-2-2-2-2-2-2-2-2---|
B-5-5-5-3-3-3-3-3-3-3-3-3-3-3-3-2-5-5-5-3-3-3-3-3-3-3-3-3-3-3-3---|
G-6-6-6-2-2-2-2-2-2-2-2-2-2-2-2-2-6-6-6-2-2-2-2-2-2-2-2-2-2-2-2---|
D-6-6-6-0-0-0-0-0-0-0-0-0-0-0-0-2-6-6-6-0-0-0-0-0-0-0-0-0-0-0-0---|
A-4-4-4-------------------------0-4-4-4---------------------------|
E-----------------------------------------------------------------|

e---------------------------------3-3-3-3-3-3-3-3-3-3-3-3-3-3-3-3-|
B-3-3-3-3-3-3-3-3-3-3-3-3-3-3-3-3-3-3-3-3-3-3-3-3-3-3-3-3-3-3-3-3-|
G-4-4-4-4-4-4-4-4-4-4-4-4-4-4-4-4-4-4-4-4-4-4-4-4-4-4-4-4-4-4-4-4-|
D-4-4-4-4-4-4-4-4-4-4-4-4-4-4-4-4-5-5-5-5-5-5-5-5-5-5-5-5-5-5-5-5-|
A-2-2-2-2-2-2-2-2-2-2-2-2-2-2-2-2-5-5-5-5-5-5-5-5-5-5-5-5-5-5-5-5-|
E---------------------------------3-3-3-3-3-3-3-3-3-3-3-3-3-3-3-3-|

Chorus:
E-2-2-2-2-2-2-2-2-2-2-2-2-2-2-2-2-2-2-2-2-2-2-2-2-2-2-2-2-2-2-2-2-|
B-3-3-3-3-3-3-3-3-3-3-3-3-3-3-3-3-2-2-2-2-2-2-2-2-2-2-2-2-2-2-2-2-|
G-2-2-2-2-2-2-2-2-2-2-2-2-2-2-2-2-2-2-2-2-2-2-2-2-2-2-2-2-2-2-2-2-|
D-0-0-0-0-0-0-0-0-0-0-0-0-0-0-0-0-4-4-4-4-4-4-4-4-4-4-4-4-4-4-4-4-|
A---------------------------------4-4-4-4-4-4-4-4-4-4-4-4-4-4-4-4-|
E---------------------------------2-2-2-2-2-2-2-2-2-2-2-2-2-2-2-2-|

e---------------------------------3-3-3-3-3-3-3-3-3-3-3-3-3-3-3-3-|
B-3-3-3-3-3-3-3-3-3-3-3-3-3-3-3-3-3-3-3-3-3-3-3-3-3-3-3-3-3-3-3-3-|
G-4-4-4-4-4-4-4-4-4-4-4-4-4-4-4-4-4-4-4-4-4-4-4-4-4-4-4-4-4-4-4-4-|
D-4-4-4-4-4-4-4-4-4-4-4-4-4-4-4-4-5-5-5-5-5-5-5-5-5-5-5-5-5-5-5-5-|
A-2-2-2-2-2-2-2-2-2-2-2-2-2-2-2-2-5-5-5-5-5-5-5-5-5-5-5-5-5-5-5-5-|
E---------------------------------3-3-3-3-3-3-3-3-3-3-3-3-3-3-3-3-|

E-2-2-2-2-2-2-2-2-2-2-2-2-2-2-2-2-2-2-2-2-2-2-2-2-2-2-2-2-2-2-2-2-|
B-3-3-3-3-3-3-3-3-3-3-3-3-3-3-3-3-2-2-2-2-2-2-2-2-2-2-2-2-2-2-2-2-|
G-2-2-2-2-2-2-2-2-2-2-2-2-2-2-2-2-2-2-2-2-2-2-2-2-2-2-2-2-2-2-2-2-|
D-0-0-0-0-0-0-0-0-0-0-0-0-0-0-0-0-4-4-4-4-4-4-4-4-4-4-4-4-4-4-4-4-|
A---------------------------------4-4-4-4-4-4-4-4-4-4-4-4-4-4-4-4-|
E---------------------------------2-2-2-2-2-2-2-2-2-2-2-2-2-2-2-2-|

e---------------------------------3-3-3-3-3-3-3-3-3-3-3-3-3-3-3-3-|
B-3-3-3-3-3-3-3-3-3-3-3-3-3-3-3-3-3-3-3-3-3-3-3-3-3-3-3-3-3-3-3-3-|
G-4-4-4-4-4-4-4-4-4-4-4-4-4-4-4-4-4-4-4-4-4-4-4-4-4-4-4-4-4-4-4-4-|
D-4-4-4-4-4-4-4-4-4-4-4-4-4-4-4-4-5-5-5-5-5-5-5-5-5-5-5-5-5-5-5-5-|
A-2-2-2-2-2-2-2-2-2-2-2-2-2-2-2-2-5-5-5-5-5-5-5-5-5-5-5-5-5-5-5-5-|
E---------------------------------3-3-3-3-3-3-3-3-3-3-3-3-3-3-3-3-|

Verse 2:
e-------2-2-2-2-2-2-2-2-2-2-2-2-0-------2-2-2-2-2-2-2-2-2-2-2-2---|
B-5-5-5-3-3-3-3-3-3-3-3-3-3-3-3-2-5-5-5-3-3-3-3-3-3-3-3-3-3-3-3---|
G-6-6-6-2-2-2-2-2-2-2-2-2-2-2-2-2-6-6-6-2-2-2-2-2-2-2-2-2-2-2-2---|
D-6-6-6-0-0-0-0-0-0-0-0-0-0-0-0-2-6-6-6-0-0-0-0-0-0-0-0-0-0-0-0---|
A-4-4-4-------------------------0-4-4-4---------------------------|
E-----------------------------------------------------------------|

e---------------------------------3-3-3-3-3-3-3-3-3-3-3-3-3-3-3-3-|
B-3-3-3-3-3-3-3-3-3-3-3-3-3-3-3-3-3-3-3-3-3-3-3-3-3-3-3-3-3-3-3-3-|
G-4-4-4-4-4-4-4-4-4-4-4-4-4-4-4-4-4-4-4-4-4-4-4-4-4-4-4-4-4-4-4-4-|
D-4-4-4-4-4-4-4-4-4-4-4-4-4-4-4-4-5-5-5-5-5-5-5-5-5-5-5-5-5-5-5-5-|
A-2-2-2-2-2-2-2-2-2-2-2-2-2-2-2-2-5-5-5-5-5-5-5-5-5-5-5-5-5-5-5-5-|
E---------------------------------3-3-3-3-3-3-3-3-3-3-3-3-3-3-3-3-|

e-------2-2-2-2-2-2-2-2-2-2-2-2-0-------2-2-2-2-2-2-2-2-2-2-2-2---|
B-5-5-5-3-3-3-3-3-3-3-3-3-3-3-3-2-5-5-5-3-3-3-3-3-3-3-3-3-3-3-3---|
G-6-6-6-2-2-2-2-2-2-2-2-2-2-2-2-2-6-6-6-2-2-2-2-2-2-2-2-2-2-2-2---|
D-6-6-6-0-0-0-0-0-0-0-0-0-0-0-0-2-6-6-6-0-0-0-0-0-0-0-0-0-0-0-0---|
A-4-4-4-------------------------0-4-4-4---------------------------|
E-----------------------------------------------------------------|

e---------------------------------3-3-3-3-3-3-3-3-3-3-3-3-3-3-3-3-|
B-3-3-3-3-3-3-3-3-3-3-3-3-3-3-3-3-3-3-3-3-3-3-3-3-3-3-3-3-3-3-3-3-|
G-4-4-4-4-4-4-4-4-4-4-4-4-4-4-4-4-4-4-4-4-4-4-4-4-4-4-4-4-4-4-4-4-|
D-4-4-4-4-4-4-4-4-4-4-4-4-4-4-4-4-5-5-5-5-5-5-5-5-5-5-5-5-5-5-5-5-|
A-2-2-2-2-2-2-2-2-2-2-2-2-2-2-2-2-5-5-5-5-5-5-5-5-5-5-5-5-5-5-5-5-|
E---------------------------------3-3-3-3-3-3-3-3-3-3-3-3-3-3-3-3-|

Chorus:
E-2-2-2-2-2-2-2-2-2-2-2-2-2-2-2-2-2-2-2-2-2-2-2-2-2-2-2-2-2-2-2-2-|
B-3-3-3-3-3-3-3-3-3-3-3-3-3-3-3-3-2-2-2-2-2-2-2-2-2-2-2-2-2-2-2-2-|
G-2-2-2-2-2-2-2-2-2-2-2-2-2-2-2-2-2-2-2-2-2-2-2-2-2-2-2-2-2-2-2-2-|
D-0-0-0-0-0-0-0-0-0-0-0-0-0-0-0-0-4-4-4-4-4-4-4-4-4-4-4-4-4-4-4-4-|
A---------------------------------4-4-4-4-4-4-4-4-4-4-4-4-4-4-4-4-|
E---------------------------------2-2-2-2-2-2-2-2-2-2-2-2-2-2-2-2-|

e---------------------------------3-3-3-3-3-3-3-3-3-3-3-3-3-3-3-3-|
B-3-3-3-3-3-3-3-3-3-3-3-3-3-3-3-3-3-3-3-3-3-3-3-3-3-3-3-3-3-3-3-3-|
G-4-4-4-4-4-4-4-4-4-4-4-4-4-4-4-4-4-4-4-4-4-4-4-4-4-4-4-4-4-4-4-4-|
D-4-4-4-4-4-4-4-4-4-4-4-4-4-4-4-4-5-5-5-5-5-5-5-5-5-5-5-5-5-5-5-5-|
A-2-2-2-2-2-2-2-2-2-2-2-2-2-2-2-2-5-5-5-5-5-5-5-5-5-5-5-5-5-5-5-5-|
E---------------------------------3-3-3-3-3-3-3-3-3-3-3-3-3-3-3-3-|

E-2-2-2-2-2-2-2-2-2-2-2-2-2-2-2-2-2-2-2-2-2-2-2-2-2-2-2-2-2-2-2-2-|
B-3-3-3-3-3-3-3-3-3-3-3-3-3-3-3-3-2-2-2-2-2-2-2-2-2-2-2-2-2-2-2-2-|
G-2-2-2-2-2-2-2-2-2-2-2-2-2-2-2-2-2-2-2-2-2-2-2-2-2-2-2-2-2-2-2-2-|
D-0-0-0-0-0-0-0-0-0-0-0-0-0-0-0-0-4-4-4-4-4-4-4-4-4-4-4-4-4-4-4-4-|
A---------------------------------4-4-4-4-4-4-4-4-4-4-4-4-4-4-4-4-|
E---------------------------------2-2-2-2-2-2-2-2-2-2-2-2-2-2-2-2-|

e---------------------------------3-3-3-3-3-3-3-3-3-3-3-3-3-3-3-3-|
B-3-3-3-3-3-3-3-3-3-3-3-3-3-3-3-3-3-3-3-3-3-3-3-3-3-3-3-3-3-3-3-3-|
G-4-4-4-4-4-4-4-4-4-4-4-4-4-4-4-4-4-4-4-4-4-4-4-4-4-4-4-4-4-4-4-4-|
D-4-4-4-4-4-4-4-4-4-4-4-4-4-4-4-4-5-5-5-5-5-5-5-5-5-5-5-5-5-5-5-5-|
A-2-2-2-2-2-2-2-2-2-2-2-2-2-2-2-2-5-5-5-5-5-5-5-5-5-5-5-5-5-5-5-5-|
E---------------------------------3-3-3-3-3-3-3-3-3-3-3-3-3-3-3-3-|

Bridge:
E-------0-0-0-2-2-2-2-2-2-2-2-------0-0-0-2-2-2-2-2-2-2-2---------|
B-5-5-5-2-2-2-3-3-3-3-3-3-3-3-5-5-5-2-2-2-3-3-3-3-3-3-3-3---------|
G-6-6-6-2-2-2-2-2-2-2-2-2-2-2-6-6-6-2-2-2-2-2-2-2-2-2-2-2---------|
D-6-6-6-2-2-2-0-0-0-0-0-0-0-0-6-6-6-2-2-2-0-0-0-0-0-0-0-0---------|
A-4-4-4-0-0-0-----------------4-4-4-0-0-0-------------------------|
E-----------------------------------------------------------------|

E-2-2-2-2-2--2-2-2-2-2--2-2-2-------------------------------------|
B-2-2-2-2-2--2-2-2-2-2--2-2-2-3-3-3-3-3--3-3-3-3-3--3-3-3---------|
G-2-2-2-2-2--2-2-2-2-2--2-2-2-4-4-4-4-4--4-4-4-4-4--4-4-4---------|
D-4-4-4-4-4--4-4-4-4-4--4-4-4-4-4-4-4-4--4-4-4-4-4--4-4-4---------|
A-4-4-4-4-4--4-4-4-4-4--4-4-4-2-2-2-2-2--2-2-2-2-2--2-2-2---------|
E-2-2-2-2-2--2-2-2-2-2--2-2-2-------------------------------------|

E-------0-0-0-2-2-2-2-2-2-2-2-------0-0-0-2-2-2-2-2-2-2-2---------|
B-5-5-5-2-2-2-3-3-3-3-3-3-3-3-5-5-5-2-2-2-3-3-3-3-3-3-3-3---------|
G-6-6-6-2-2-2-2-2-2-2-2-2-2-2-6-6-6-2-2-2-2-2-2-2-2-2-2-2---------|
D-6-6-6-2-2-2-0-0-0-0-0-0-0-0-6-6-6-2-2-2-0-0-0-0-0-0-0-0---------|
A-4-4-4-0-0-0-----------------4-4-4-0-0-0-------------------------|
E-----------------------------------------------------------------|

E-2-2-2-2-2--2-2-2-2-2--2-2-2-------------------------------------|
B-2-2-2-2-2--2-2-2-2-2--2-2-2-3-3-3-3-3--3-3-3-3-3--3-3-3---------|
G-2-2-2-2-2--2-2-2-2-2--2-2-2-4-4-4-4-4--4-4-4-4-4--4-4-4---------|
D-4-4-4-4-4--4-4-4-4-4--4-4-4-4-4-4-4-4--4-4-4-4-4--4-4-4---------|
A-4-4-4-4-4--4-4-4-4-4--4-4-4-2-2-2-2-2--2-2-2-2-2--2-2-2---------|
E-2-2-2-2-2--2-2-2-2-2--2-2-2-------------------------------------|

Outro:
E-2-2-2-2-2-2-2-2-0-0-0-0-0-0-0-0-----------------3-3-3-3-3-3-3-3-|
B-3-3-3-3-3-3-3-3-2-2-2-2-2-2-2-2-3-3-3-3-3-3-3-3-3-3-3-3-3-3-3-3-|
G-2-2-2-2-2-2-2-2-2-2-2-2-2-2-2-2-4-4-4-4-4-4-4-4-4-4-4-4-4-4-4-4-|
D-0-0-0-0-0-0-0-0-2-2-2-2-2-2-2-2-4-4-4-4-4-4-4-4-5-5-5-5-5-5-5-5-|
A-----------------0-0-0-0-0-0-0-0-2-2-2-2-2-2-2-2-5-5-5-5-5-5-5-5-|
E-------------------------------------------------3-3-3-3-3-3-3-3-|

E-2-2-2-2-2-2-2-2-0-0-0-0-0-0-0-0-----------------3-3-3-3-3-3-3-3-|
B-3-3-3-3-3-3-3-3-2-2-2-2-2-2-2-2-3-3-3-3-3-3-3-3-3-3-3-3-3-3-3-3-|
G-2-2-2-2-2-2-2-2-2-2-2-2-2-2-2-2-4-4-4-4-4-4-4-4-4-4-4-4-4-4-4-4-|
D-0-0-0-0-0-0-0-0-2-2-2-2-2-2-2-2-4-4-4-4-4-4-4-4-5-5-5-5-5-5-5-5-|
A-----------------0-0-0-0-0-0-0-0-2-2-2-2-2-2-2-2-5-5-5-5-5-5-5-5-|
E-------------------------------------------------3-3-3-3-3-3-3-3-|

E-2-2-2-2-2-2-2-2-0-0-0-0-0-0-0-0-----------------3-3-3-3-3-3-3-3-|
B-3-3-3-3-3-3-3-3-2-2-2-2-2-2-2-2-3-3-3-3-3-3-3-3-3-3-3-3-3-3-3-3-|
G-2-2-2-2-2-2-2-2-2-2-2-2-2-2-2-2-4-4-4-4-4-4-4-4-4-4-4-4-4-4-4-4-|
D-0-0-0-0-0-0-0-0-2-2-2-2-2-2-2-2-4-4-4-4-4-4-4-4-5-5-5-5-5-5-5-5-|
A-----------------0-0-0-0-0-0-0-0-2-2-2-2-2-2-2-2-5-5-5-5-5-5-5-5-|
E-------------------------------------------------3-3-3-3-3-3-3-3-|

E-2-2-2-2-2-2-2-2-0-0-0-0-0-0-0-0-----------------3-3-3-3-3-3-3-3-|
B-3-3-3-3-3-3-3-3-2-2-2-2-2-2-2-2-3-3-3-3-3-3-3-3-3-3-3-3-3-3-3-3-|
G-2-2-2-2-2-2-2-2-2-2-2-2-2-2-2-2-4-4-4-4-4-4-4-4-4-4-4-4-4-4-4-4-|
D-0-0-0-0-0-0-0-0-2-2-2-2-2-2-2-2-4-4-4-4-4-4-4-4-5-5-5-5-5-5-5-5-|
A-----------------0-0-0-0-0-0-0-0-2-2-2-2-2-2-2-2-5-5-5-5-5-5-5-5-|
E-------------------------------------------------3-3-3-3-3-3-3-3-|
Tap to rate this tab
 
# A B C D E F G H I J K L M N O P Q R S T U V W X Y Z