Song name
# A B C D E F G H I J K L M N O P Q R S T U V W X Y Z

Taking Back Sunday - Blue Channel tab

Verse:
Both Guitars:
e--5------3------1------5-------------------|
b--6------3------1------5-------------------|
g--7-X16--5-x16--3-x16--5-x16---------------| X2
d--7------5------3------7-------------------|
a--5------3------1------7-------------------|
E-----------------------5-------------------|

Chorus:
Guitar1:
e------------------------------------------------------|
b------------------------------------------------------|
g--7-9-5-3333333333333333-7-9-5-3333-3333-333----------|
d------------------------------------------------------|
a--5-7-3-1111111111111111-5-7-3-1111-1111-111----------|
E------------------------------------------------------|
Guitar2:
e--000-000-000-0-0-0-0------|
b--555-666-555-13131313-----|
g---------------------------|
d---------------------------|
a---------------------------|
E---------------------------|

Bridge:
Both Guitars:
e-------------------------------------------------------------------|
b-------------------------------------------------------------------|
g-77777-77777-777-99999-99999-999-55555-55555-555-33333-33333-333---|
d-------------------------------------------------------------------|
a-55555-55555-555-77777-77777-777-33333-33333-333-11111-11111-111---|
E-------------------------------------------------------------------|
and the bridge just repeats till the song is over and it will end on the b flat octave
Tap to rate this tab
 
# A B C D E F G H I J K L M N O P Q R S T U V W X Y Z