Song name
# A B C D E F G H I J K L M N O P Q R S T U V W X Y Z

Taking Back Sunday - Whats It Feel Like To Be A Ghost tab

-----------------------------------------------------------------------------
         Whats it feel like to be a ghost-taking back sunday
-------------------------------------------------------------------------------
Tabbed by:BlInK41NiCk
Email:

Tuning:drop-d
uhhh this is my first tab so dunt go to harsh on me...nd im only 14 soo yea
(by the way, it dusnt hav 2 be in drop D, i just thought it might be easier)


PLEASE RATE!!!! i think this is about 90 percent rite...leav comments or questions


guitar 1-fred mascherinO
guitar 2-ed reyes

GUITAR 1
INTRO
e|------------------------------------------------------------------------------|
B|------------------------------------------------------------------------------|
G|------------------------------------------------------------------------------|
D|-----4~----4---------4~------4------------------------------------------------|
A|-----------------------------------4-------4-----4~---------------------------|
D|--6------6---6-6-6-6-------6--6--2------2---2-2-2-----------------------------|
x4 (bend the last 4 a bit on the second time)

guitar 2
intro
e|-----------------------------------|
B|-----------------------------------|
G|-----------------------------------|
D|---6-6---666666~--66--22---222222--|
A|---6-6---666666~--66--22---222222--|
D|---6-6---666666~--66--22---222222--|
x2 (comes in after guitar 1 plays his intro twice)


VERSE
guitaR 1
e|---------------------------------------------------------------------------|
B|---------------------------------------------------------------------------|
G|---------------------------------------------------------------------------|
D|---------------------------------------------------------------------------|
A|6666-2222-6666-2222--4444444444444444--------------------------------------|
D|6666-2222-6666-2222--4444444444444444--------------------------------------|
  PM...................................

e|-----------------------------------------------------------------------------|
B|-----------------------------------------------------------------------------|
G|-----------------------------------------------------------------------------|
D|-----------------------------------------------------------------------------|
A|6666-2222-6666-2222---4/6-66666666666666666----------------------------------|
D|6666-2222-6666-2222---4/6 66666666666666666----------------------------------|
 pm...................      ................
(not too sure bout the slide)

e|---------------------------------------------------------------------------|
B|--9-7-9-7-7-6-7-6-6-4-6-4-4-3-4-3------------------------------------------|
G|---------------------------------------------------------------------------|
D|---------------------------------------------------------------------------|x3
A|---------------------------------------------------------------------------|
D|---------------------------------------------------------------------------|
  PM...............................
(listenly closly to get the timing rite)
(definetely not sure about this)


guitaR 2

e|---------------------------------------------------------------------------|
B|---------------------------------------------------------------------------|
G|---------------------------------------------------------------------------|
D|---------------------------------------------------------------------------|
A|6666-2222-6666-2222--4444444444444444--------------------------------------|
D|6666-2222-6666-2222--4444444444444444--------------------------------------|
 pm....................................

e|-----------------------------------------------------------------------------|
B|-----------------------------------------------------------------------------|
G|-----------------------------------------------------------------------------|
D|-----------------------------------------------------------------------------|
A|6666-2222-6666-2222--4/6-66666666666666666-----------------------------------|
D|6666-2222-6666-2222--4/6 66666666666666666-----------------------------------|
  pm..................    ..................

e|---------------------------------------------------------------------------|
B|---------------------------------------------------------------------------|
G|---------------------------------------------------------------------------|
D|---------------------------------------------------------------------------|
A|6666-2222-6666-2222--4444444444444444--------------------------------------|
D|6666-2222-6666-2222--4444444444444444--------------------------------------|
 pm....................................

e|------------------------------------------------------------------------------------|
B|------------------------------------------------------------------------------------|
G|------------------------------------------------------------------------------------|
D|------------------------------------------------------------------------------------|
A|6666-2222-6666-2222--4444444444444444------4/6\4\2----------------------------------|
D|6666-2222-6666-2222--4444444444444444------4/6\4\2----------------------------------|
 pm...............................
                      (slowly let go of the palm mute)
(not sure about the slide leadin into the chorus)

CHORUS
guitar 1
e|---------------------------------------------------------------------------|
B|---------------------------------------------------------------------------|
G|-1313131313131313--11111111111111111---------------------------------------|
D|-x-x-x-x-x-x-x-x---x-x-x-x-x-x-x-x-x---------------------------------------|x2
A|-1111111111111111--9-9-9-9-9-9-9-9-9---4~--4------4~-----------------------|
D|--------------------------------------2---2--2-2-2-------------------------|


guitar 2
e|---------------------------------------------------------------------------|
B|---------------------------------------------------------------------------|
G|---------------------------------------------------------------------------|
D|-66666666--22222222--4444444444444444--------------------------------------|
A|-66666666--22222222--4444444444444444--------------------------------------|x2
D|-66666666--22222222--4444444444444444--------------------------------------|

then both guitars
e|---------------------------------------------------------------------------|
B|---------------------------------------------------------------------------|
G|---------------------------------------------------------------------------|x2
D|-6666666666666666--2222222222222222----------------------------------------|
A|-6666666666666666--2222222222222222----------------------------------------|
D|-6666666666666666--2222222222222222----------------------------------------|

(guitar 1 can play this durin the second time around instead of the second powercord)
e|--------------------------------------|
B|--------------------------------------|
G|--------------------------------------|
D|--------------------------------------|
A|--4~---4-------4~---------------------|
D|-2---2--2-2-2-2-----------------------|

2nd verse (guitar plays same thing as verse 1)
while guitar 1 does this
guitar 1

e|--------------------------------------|
B|--------------------------------------|x8
G|-44442222-----------------------------|
D|-44444444-----------------------------|
A|--------------------------------------|not sure bout this either
D|--------------------------------------|
  pm........................

then
e|---------------------------------------------------------------------------|
B|--9-7-9-7-7-6-7-6-6-4-6-4-4-3-4-3------------------------------------------|
G|---------------------------------------------------------------------------|
D|---------------------------------------------------------------------------|
A|---------------------------------------------------------------------------|
D|---------------------------------------------------------------------------|
  PM...............................

CHORUS
guitar 1
e|---------------------------------------------------------------------------|
B|---------------------------------------------------------------------------|
G|-1313131313131313--11111111111111111---------------------------------------|
D|-x-x-x-x-x-x-x-x---x-x-x-x-x-x-x-x-x---------------------------------------|x2
A|-1111111111111111--9-9-9-9-9-9-9-9-9---4~--4------4~-----------------------|
D|--------------------------------------2---2--2-2-2-------------------------|


guitar 2
e|---------------------------------------------------------------------------|
B|---------------------------------------------------------------------------|
G|---------------------------------------------------------------------------|
D|-66666666--22222222--4444444444444444--------------------------------------|
A|-66666666--22222222--4444444444444444--------------------------------------|x2
D|-66666666--22222222--4444444444444444--------------------------------------|

then both guitars
e|---------------------------------------------------------------------------|
B|---------------------------------------------------------------------------|
G|---------------------------------------------------------------------------|x2
D|-6666666666666666--2222222222222222----------------------------------------|
A|-6666666666666666--2222222222222222----------------------------------------|
D|-6666666666666666--2222222222222222----------------------------------------|

(guitar 1 can play this durin the second time around instead of the second powercord)
e|--------------------------------------|
B|--------------------------------------|
G|--------------------------------------|
D|--------------------------------------|
A|--4~---4-------4~---------------------|
D|-2---2--2-2-2-2-----------------------|


BRIDGE
guitar 1
e|-----------2-------------------------------|guitar 2 does nothing here
B|-------------0--0~-------------------------|
G|--4~-----------3------8~-------------------|
D|--4~----4-------------9~-------------------|
A|--2~------------------7~-------------------|
D|-------------------------------------------|

then
guitar1
e|--------------------------------------------------------------------------------|
B|------4-4-4-4-4-4-5~-2-2-2-2-2-2--0~-7p5-7p5-0~-7p5-7p5-0~----------------------|
G|--4~----------------------------------------------------------------------------|
D|--4~----------------------------------------------------------------------------|
A|--2~----------------------------------------------------------------------------|
D|--------------------------------------------------------------------------------|
repeat a couple of times

then
guitar 1
e|------------------------------------------------------------------------|
B|------------------------------------------------------------------------|
G|-4-4-4-4-6-6-6-6-8-8-8-8-9-9-9-9-8-8-8-8-9-9-9-9-11111111-12121212------|
D|-x-x-x-x-x-x-x-x-x-x-x-x-x-x-x-x-x-x-x-x-x-x-x-x-x-x-x-x--x-x-x-x-------|
A|-2-2-2-2-4-4-4-4-6-6-6-6-7-7-7-7-6-6-6-6-7-7-7-7-9-9-9-9--10101010------|
D|------------------------------------------------------------------------|

guitar 2

e|---------------------------------------------------------------------------|
B|---------------------------------------------------------------------------|
G|-4-4-4-4-6-6-6-6-8-8-8-8-9-9-9-9-4-4-4-4-6-6-6-6-8-8-8-8-9-9-9-9-----------|
D|-x-x-x-x-x-x-x-x-x-x-x-x-x-x-x-x-x-x-x-x-x-x-x-x-x-x-x-x-x-x-x-x-----------|
A|-2-2-2-2-4-4-4-4-6-6-6-6-7-7-7-7-2-2-2-2-4-4-4-4-6-6-6-6-7-7-7-7-----------|
D|---------------------------------------------------------------------------|

THEN
guitar 1 only
e|---------------------------------------------------------------------------|
B|---------------------------------------------------------------------------|
G|---------------------------------------------------------------------------|
D|----4~--4------4~---4----4-4-----4-----------------------------------------|
A|---------------------------------------------------------------------------|
D|---6---6--6-6-6---6-6-6---6-6-6-6------------------------------------------|


final
CHORUS
guitar 1
e|---------------------------------------------------------------------------|
B|---------------------------------------------------------------------------|
G|-1313131313131313--11111111111111111---------------------------------------|
D|-x-x-x-x-x-x-x-x---x-x-x-x-x-x-x-x-x---------------------------------------|x2
A|-1111111111111111--9-9-9-9-9-9-9-9-9---4~--4------4~-----------------------|
D|--------------------------------------2---2--2-2-2-------------------------|


guitar 2
e|---------------------------------------------------------------------------|
B|---------------------------------------------------------------------------|
G|---------------------------------------------------------------------------|
D|-66666666--22222222--4444444444444444--------------------------------------|
A|-66666666--22222222--4444444444444444--------------------------------------|x2
D|-66666666--22222222--4444444444444444--------------------------------------|

then both guitars
e|---------------------------------------------------------------------------|
B|---------------------------------------------------------------------------|
G|---------------------------------------------------------------------------|x2
D|-6666666666666666--2222222222222222----------------------------------------|
A|-6666666666666666--2222222222222222----------------------------------------|
D|-6666666666666666--2222222222222222----------------------------------------|


and lastly.....
guitar 1
e|----------------------------------------|
B|----------------------------------------|
G|----------------------------------------|
D|----4~--4------4~---4--6----------------|
A|-----------------------6----------------|
D|---6---6--6-6-6---6--6-6----------------|


guitar 2
e|------------------------------------------|
B|------------------------------------------|
G|------------------------------------------|
D|-----------------------6------------------|
A|-----------------------6------------------|
D|-----------------------6------------------|

| ~ let ring
| /  slide up
| \  slide down
| h  hammer-on
| p  pull-off
| ~  vibrato
| +  harmonic
| x  Mute note
Tap to rate this tab
# A B C D E F G H I J K L M N O P Q R S T U V W X Y Z