Guitaretab - guitar tabs
Song name
# A B C D E F G H I J K L M N O P Q R S T U V W X Y Z

Taking Back Sunday - Monterey Peninsula Bike Scene tab

Song: Monterey Peninsula Bike Scene
Band: Taking Back Sunday
Album: Tell All Your Friends Demo
tabbed  by: athsmador (anothervivacarter@yahoo.com)


gotta give cred to Derek (DRUMasterStylee@aol.com) cuz i used his tab of Bike Scene (ver 1)as a guide

Intro 
E|-------------------------------------------------| 
B|-------------------------------------------------| 
G|-55555--555555/1212121212--1212121212-10/--------| 
D|-55555--555555/x-x-x-x-x---x-x-x-x-x--x-/--------| 
A|-33333--333333/1010101010--1010101010-8/---------| 
E|-------------------------------------------------|

verse-Guitar 1
E|---------------------------------------------------------------------| 
B|---------------------------------------------------------------------|
G|-2222222222222222-------------------55555555555555555555555555555555-| 
D|-2222222222222222-55555555-33333333-55555555555555555555555555555555-|
A|-0000000000000000-55555555-33333333-33333333333333333333333333333333-|
E|------------------33333333-11111111----------------------------------|

verse-Guitar 2
E|--------------------------------------------------------------| 
B|-----0----------------0---------------0-------------0---------| 
G|---5----------------5----------------5------------5-----------| 
D|--5----------------5----------------5------------5------------| 
A|-0---------------------------------3------------3-------------| 
E|------------------3-------------------------------------------|

Guitar 1 
E|-------------------------------------------------| 
B|-------------------------------------------------| 
G|-55555555555555555555555555555555----------------| 
D|-55555555555555555555555555555555----------------| 
A|-33333333333333333333333333333333----------------| 
E|-------------------------------------------------| 

Guitar 2 
E|-------------------------------------------------| 
B|-----0----------------0--------------------------| 
G|---5-----------------5---------------------------| 
D|--5-----------------5----------------------------| 
A|-3-----------------3-----------------------------| 
E|-------------------------------------------------|

Chorus
Guitars 1+2
E|-------------------------------------------------| 
B|-------------------------------------------------| 
G|-55555555/77777777/99999999-1010101010101010\9\--| 
D|-xxxxxxxx/xxxxxxxx/xxxxxxxx-x-x-x-x-x-x-x-x-\x\--| 
A|-33333333/55555555/77777777/8-8-8-8-8-8-8-8-\7\--| 
E|-------------------------------------------------|

E|-------------------------------------------| 
B|-------------------------------------------| 
G|-------------------------------------------| 
D|-77777777\55555555\3333333333333--xxxxxxxx-| 
A|-77777777\55555555\3333333333333--xxxxxxxx-| 
E|-55555555\33333333\1111111111111--xxxxxxxx-|   

E|-------------------------------------------------| 
B|-------------------------------------------------| 
G|-55555555/77777777/99999999-1010101010101010\9\--| 
D|-xxxxxxxx/xxxxxxxx/xxxxxxxx-x-x-x-x-x-x-x-x-\x\--| 
A|-33333333/55555555/77777777/8-8-8-8-8-8-8-8-\7\--| 
E|-------------------------------------------------| 

E|-------------------------------------------------| 
B|-------------------------------------------------| 
G|-------------------------------------------------| 
D|-77777777\55555555\3333333333333-3-x-------------| 
A|-77777777\55555555\3333333333333-3-x-------------| 
E|-55555555\33333333\1111111111111-1-x-------------|  
[ Tab from: http://www.guitaretab.com/t/taking-back-sunday/90124.html ]
second verse
E|-----------------------------------------------------| 
B|-----------------------------------------------------| 
G|-55555xxxx555555/1212121212xxxx-1212121212-10101010--| 
D|-55555xxxx555555/x-x-x-x-x-xxxx-x-x-x-x-x--x-x-x-x---| 
A|-33333xxxx333333/1010101010xxxx-1010101010-8-8-8-8---| 
E|-----------------------------------------------------|

E|-------------------------------------------------| 
B|-------------------------------------------------| 
G|-99999xxxx99999/101010-12\10\9\7/9/10\9\5--------| 
D|-99999xxxx99999/x-x-x--12\10\9\7/9/10\9\7--------| 
A|-77777xxxx77777/8-8-8--10\8-\7\5/7/8-\7\5--------| 
E|-------------------------------------------------|

chorus again
Guitars 1+2
E|-------------------------------------------------| 
B|-------------------------------------------------| 
G|-55555555/77777777/99999999-1010101010101010\9\--| 
D|-xxxxxxxx/xxxxxxxx/xxxxxxxx-x-x-x-x-x-x-x-x-\x\--| 
A|-33333333/55555555/77777777/8-8-8-8-8-8-8-8-\7\--| 
E|-------------------------------------------------|

E|-------------------------------------------| 
B|-------------------------------------------| 
G|-------------------------------------------| 
D|-77777777\55555555\3333333333333--xxxxxxxx-| 
A|-77777777\55555555\3333333333333--xxxxxxxx-| 
E|-55555555\33333333\1111111111111--xxxxxxxx-|   

E|-------------------------------------------------| 
B|-------------------------------------------------| 
G|-55555555/77777777/99999999-1010101010101010\9\--| 
D|-xxxxxxxx/xxxxxxxx/xxxxxxxx-x-x-x-x-x-x-x-x-\x\--| 
A|-33333333/55555555/77777777/8-8-8-8-8-8-8-8-\7\--| 
E|-------------------------------------------------| 

E|-------------------------------------------------| 
B|-------------------------------------------------| 
G|------------------------------------5-4-5--------| 
D|-77777777\55555555\3333333333333-3--5-4-5--------| 
A|-77777777\55555555\3333333333333-3--3-2-3--------| 
E|-55555555\33333333\1111111111111-1---------------|

Bridge Part (Clean) 
E|-------------------------------------------------| 
B|------0----------0-----------0----------0--------| 
G|----5----------5-----------5----------5----------| 
D|--5-----5-----5----5-----5-----5----5----5-------| 
A|-3-3---------3-3--------0-0-----0--0-0----0------| 
E|-------------------------------------------------|   
keep repeating that theres some more guitar playing notes but itís hard to hear over the drums

Outro--Guitar 1
(distorted) (keep playing this three or four times i think)
E|----------------------| 
B|----------------------|
G|-5--------------------| 
D|-5--------7-----------|
A|-3-(x32)--7-----------|
E|----------5--(x32) ---|

Guitar 2-come in after the 1st guitar plays this a few times n keep playing till the end
E|-------------------------------------------------| 
B|-------------------------------------------------| 
G|-12-10-9-10-9h10p9--12-10-9-10-9h10p9------------| 
D|-------------------------------------------------| 
A|-------------------------------------------------| 
E|-------------------------------------------------|


Guitar 1 
E|-------------------------------------------------| 
B|-------------------------------------------------| 
G|-5---5---5---5---5-------5---5---5---------------| 
D|-5---5---5---5---5-------5---5---5---------------| 
A|-3---3---3---3---3-------3---3---3---------------| 
E|-------------------------------------------------|

Guitar 2 
E|-------------------------------------------------| 
B|-------------------------------------------------| 
G|-12-10-9-10-9h10p9--------12-10-9----------------| 
D|-------------------------------------------------| 
A|-------------------------------------------------| 
E|-------------------------------------------------|

Related for Monterey Peninsula Bike Scene tab