Song name
# A B C D E F G H I J K L M N O P Q R S T U V W X Y Z

Taking Back Sunday - Theres No I In Team tab

----------------------------------------------------------------
         THERE'S NO 'I' IN TEAM - Taking Back Sunday
----------------------------------------------------------------
Tabbed by:chris a
Tuning:Drop D

Main Riff
Guitar1(palm mute)
e|------------------------------------|
B|------------------------------------|
G|-7-6---7-6---7-6---7-6---7-6---6----|
D|-----7-----7-----7-----7-----7------|
A|------------------------------------|
D|------------------------------------|
Guitar2
e|----------------9------9------9------9----|
B|------------------------------------------|
G|------6-7-----7-------7------7------7-----|
D|--9~------9~------9~-----99-----99--------|
A|------------------------------------------|
D|------------------------------------------|

Chorus(both guitars)
e|-------------------------------------------------------------------------|
B|-------------------------------------------------------------------------|
G|---------------------------------------77777777666666667777777766666666--|
D|--999999999999999/11-777777777777777/9-55555555555555555555555555555555--|
A|--999999999999999/11-777777777777777/9-55555555555555555555555555555555--|
D|--999999999999999/11-777777777777777/9-55555555555555555555555555555555--|

Interlude
Guitar1(palm mute)                                     
e|--------------------------------|
B|--------------------------------|
G|--------------------------------|
D|-0-000-0-0-000-0-0-000-0-0-0----|
A|-0-000-0-0-000-0-0-000-0-0-0----|
D|-0-000-0-0-000-0-0-000-0-0-0----|
Guitar2(comes in on second time)
e|--------------------------------|
B|--1010101010101010-88888888-----|the bottom notes(D string) might not 
G|---9-9-9-9-9-9-9-9-77777777-----|be there its to hard to hear
D|---7-7-7-7-7-7-7-7-55555555-----|
A|--------------------------------|
D|--------------------------------|

Verse
Guitar1
e|---------------------------------------------------|
B|---------------------------------------------------|
G|---------------------------------------------------|
D|--9-9-9-9-9-9-7-7-7-7-7-7-5-5-5-5-5-5-5-5-5-5-5-5--|
A|--9-9-9-9-9-9-7-7-7-7-7-7-5-5-5-5-5-5-5-5-5-5-5-5--|
D|--9-9-9-9-9-9-7-7-7-7-7-7-5-5-5-5-5-5-5-5-5-5-5-5--|
Guitar2
e|---------9-------9-------------|
B|-------------------------------|
G|--7--7-7---7-7-7---7--7-7-7----|
D|-------------------------------|
A|-------------------------------|
D|-------------------------------|

Outro
Guitar1
e|-------------------------------|
B|-------------------------------|
G|-------------------------------|
D|--9~---------------------------|
A|--9~---------------------------|
D|--9~---------------------------|
Guitar2
e|---------9-------9-------------|
B|-------------------------------|
G|--7--7-7---7-7-7---7--7-7-7----|
D|-------------------------------|
A|-------------------------------|
D|-------------------------------|
Guitar1
e|-------------------------------|
B|-------------------------------|
G|-------------------------------|
D|--9\-----------------------9---|
A|--9\------(kind of fades in^)--|
D|--9\---------------------------|
Guitar2
e|---------9-------9-------------|
B|-------------------------------|
G|--7--7-7---7-7-7---7--7-7-7----|
D|-------------------------------|
A|-------------------------------|
D|-------------------------------|

Tap to rate this tab
# A B C D E F G H I J K L M N O P Q R S T U V W X Y Z