Song name
# A B C D E F G H I J K L M N O P Q R S T U V W X Y Z

Takka Takka - Coco On The Corner tab

-----------------------------------------------------------------------------
			     COCO ON THE CORNER - Takka Takka
-----------------------------------------------------------------------------
Tabbed by: SonicYouthRules (Chapman Li)
Email: chapmanli@hotmail.com

Tuning: Standard

What a great new band - saw these guys live at Buffalo Bar (Artrocker)
gig - great songwriting and simple, catchy melodies


INTRO

e|-------------------------------------------------------------------------|
B|---3-------5--------8--8--8--8-------------------------------------------|
G|---4-------6--------9--9--9--9-------------------------------------------|
D|---5-------7--------10-10-10-10------------------------------------------|
A|---5-------7--------10-10-10-10------------------------------------------|
E|---3-------5--------8--8--8--8-------------------------------------------|



VERSE

e|-------------------------------------------------------------------------|
B|---3--3-3-3--5---5-5---8-8--8--------------------------------------------|
G|---4--4-4-4--6---6-6---9-9--9--------------------------------------------|
D|---5--5-5-5--7---7-7--10-10-10-------------------------------------------|
A|---5--5-5-5--7---7-7--10-10-10-------------------------------------------|
E|---3--3-3-3--5---5-5---8-8--8--------------------------------------------|

repeat etc



CHORUS

e|-------------------------------------------------------------------------|
B|--5~----3-3-3--5-5-5--3-3-3--5-------------------------------------------|
G|--5~----4-4-4--5-5-5--4-4-4--5-------------------------------------------|
D|--5~----5-5-5--5-5-5--5-5-5--5-------------------------------------------|
A|--3~----5-5-5--3-3-3--5-5-5--3-------------------------------------------|
E|--------3-3-3---------3-3-3----------------------------------------------|

repeat



link to band site:- http://myspace.com/takkatakka



| /  slide up
| \  slide down
| h  hammer-on
| p  pull-off
| ~  vibrato
| +  harmonic
| x  Mute note
===============================================================================
Tap to rate this tab
# A B C D E F G H I J K L M N O P Q R S T U V W X Y Z