Song name
# A B C D E F G H I J K L M N O P Q R S T U V W X Y Z

Talisman - Ill Be Waiting tab

Intro - the first part only vocal, then:

e|-------------------|-----------------|
B|-------------------|-----------------|
G|-------------------|-----------------|
D|---------2---1-----|---------2-------| (2x)
A|-4-2-------0---0---|-4-2-------0--2~-|
E|-----4-2-----------|-----4-2---------| 

Verse - first keyboard-part only, then:
                                         <=    P.M    =>
e|-------------------|-----------------|-----------------|
B|-------------------|-----------------|-----------------|
G|----2---------2--2-|----4------------|-6-6-6-6-6-6-6-6-|
D|----2---------2--2-|----4------------|-6-6-6-6-6-6-6-6-|
A|----0---------0--0-|----2------------|-4-4-4-4-4-4-4-4-|
E|-------------------|-----------------|-----------------|
   ( Oh    oh  oh         oh,            I can be the one..)

                       <=    P.M    =>
e|-------------------|-----------------|--------------------|
B|-------------------|-----------------|--------------------|
G|-2--4------6-------|-6-6-6-6-6-6-6-6-|----------0-0--4----|
D|-2--4------6-------|-6-6-6-6-6-6-6-6-|----------2-2--4--6-|
A|-0--2------4-------|-4-4-4-4-4-4-4-4-|--6-4-----2-2--2--6-|
E|-------------------|-----------------|------6-4---------4-| (break)
         (Dance and romance until the morning lite )


Chorus: 
e|--------------------|-----------------|-------------------|-----------------|
B|--------------------|-----------------|-------------------|-----------------|
G|----6--6-6---4--4-4-|---------2--2----|-4--6--6-6--4--4-4-|---------2--2----|
D|----6--6-6---4--4-4-|-4--4-4--2--2----|-4--6--6-6--4--4-4-|-4--4-4--2--2----|
A|----4--4-4---2--2-2-|-4--4-4--0--0----|-2--4--4-4--2--2-2-|-4--4-4--0--0----|
E|--------------------|-2--2-2----------|-------------------|-2--2-2----------|
( if you need some..,   I'll be waiting  right by your side )

e|-------------------|-----------------|
B|-------------------|-----------------|
G|-------------------|-----------------|
D|---------2---1-----|---------2-------| (2x)
A|-4-2-------0---0---|-4-2-------0--2~-|
E|-----4-2-----------|-----4-2---------| 
  ( tonight...)

Verse: Keyboard - first keyboard-part only, then:
                                         <=    P.M    =>
e|-------------------|-----------------|-----------------|
B|-------------------|-----------------|-----------------|
G|----2---------2--2-|----4------------|-6-6-6-6-6-6-6-6-|
D|----2---------2--2-|----4------------|-6-6-6-6-6-6-6-6-|
A|----0---------0--0-|----2------------|-4-4-4-4-4-4-4-4-|
E|-------------------|-----------------|-----------------|
   ( Oh    oh  oh         oh,            I can be the one..)

                       <=    P.M    =>
e|-------------------|-----------------|--------------------|
B|-------------------|-----------------|--------------------|
G|-2--4------6-------|-6-6-6-6-6-6-6-6-|----------0-0--4----|
D|-2--4------6-------|-6-6-6-6-6-6-6-6-|----------2-2--4--6-|
A|-0--2------4-------|-4-4-4-4-4-4-4-4-|--6-4-----2-2--2--6-|
E|-------------------|-----------------|------6-4---------4-| (break)

Chorus:
e|--------------------|-----------------|-------------------|-----------------|
B|--------------------|-----------------|-------------------|-----------------|
G|----6--6-6---4--4-4-|---------2--2----|-4--6--6-6--4--4-4-|---------2--2----|
D|----6--6-6---4--4-4-|-4--4-4--2--2----|-4--6--6-6--4--4-4-|-4--4-4--2--2----|
A|----4--4-4---2--2-2-|-4--4-4--0--0----|-2--4--4-4--2--2-2-|-4--4-4--0--0----|
E|--------------------|-2--2-2----------|-------------------|-2--2-2----------|
( if you need some..,   I'll be waiting  right by your side )

Solo - Sorry, can't figure the solo out, rythmn guitar plays:

e|-------------------|-----------------|
B|-------------------|-----------------|
G|-------------------|-----------------|
D|---------2---1-----|---------2-------| (4x)
A|-4-2-------0---0---|-4-2-------0--2~-|
E|-----4-2-----------|-----4-2---------| 


e|-------------------|--------------------|----------------------|
B|-------------------|--------------------|----------------------|
G|--2--2-2---4--4-4--|-6--6-6-6-6-6-6-6-6-|--2--4--6-6-6-6-6-6-6-|
D|--2--2-2---4--4-4--|-6--6-6-6-6-6-6-6-6-|--2--4--6-6-6-6-6-6-6-|
A|--0--0-0---2--2-2--|-4--4-4-4-4-4-4-4-4-|--0--2--4-4-4-4-4-4-4-|
E|-------------------|--------------------|----------------------|

e|--------------------|
B|--------------------|
G|----------0-0--4----|
D|----------2-2--4--6-|
A|--6-4-----2-2--2--6-|
E|------6-4---------4-| (break)

Chorus: 
e|--------------------|-----------------|-------------------|-----------------|
B|--------------------|-----------------|-------------------|-----------------|
G|----6--6-6---4--4-4-|---------2--2----|-4--6--6-6--4--4-4-|---------2--2----|
D|----6--6-6---4--4-4-|-4--4-4--2--2----|-4--6--6-6--4--4-4-|-4--4-4--2--2----|
A|----4--4-4---2--2-2-|-4--4-4--0--0----|-2--4--4-4--2--2-2-|-4--4-4--0--0----|
E|--------------------|-2--2-2----------|-------------------|-2--2-2----------|
( if you need some..,   I'll be waiting  right by your side So.. if you need..)

e|--------------------|-----------------|-------------------|-----------------|
B|--------------------|-----------------|-------------------|-----------------|
G|----6--6-6---4--4-4-|---------2--2----|-4--6--6-6--4--4-4-|---------2--2----|
D|----6--6-6---4--4-4-|-4--4-4--2--2----|-4--6--6-6--4--4-4-|-4--4-4--2--2----|
A|----4--4-4---2--2-2-|-4--4-4--0--0----|-2--4--4-4--2--2-2-|-4--4-4--0--0----|
E|--------------------|-2--2-2----------|-------------------|-2--2-2----------|

Outro:

e|-------------------|-----------------|
B|-------------------|-----------------|
G|-------------------|-----------------|
D|---------2---1-----|---------2-------| 
A|-4-2-------0---0---|-4-2-------0--2~-|
E|-----4-2-----------|-----4-2---------| 

e|-------------------|-----------------|
B|-------------------|-----------------|
G|-------------------|--------------6--|
D|---------2---1-----|---------2----6--|
A|-4-2-------0---0---|-4-2-------0--4--|
E|-----4-2-----------|-----4-2---------| 
Tap to rate this tab
 
# A B C D E F G H I J K L M N O P Q R S T U V W X Y Z