Song name
# A B C D E F G H I J K L M N O P Q R S T U V W X Y Z

Talk Show - Hello Hello tab

-------------------------------------------------------------------------------
                             Hello Hello - Talk Show
-------------------------------------------------------------------------------
Tabbed by: maidenbridge666

Tuning: Standard

Listen to the song for timing the strum patterns. Its easy enough to work out. I 
havent tabbed the solo. Its more fun to just improvise it anyway.

Verse:
  3/4                       4/4
e|-------------------------|------------------------|
B|-------------------------|------------------------|
G|-----------------4p0-----|-2--2--2--2--2--2--2--2-|
D|---------------4-----4p0-|-2--2--2--2--2--2--2--2-|
A|-------4-0-4-5-----------|-0--0--0--0--0--0--0--0-|
E|-0-4-5-------------------|------------------------|


Chorus:
  
  3/4
e|-------------------------|
B|-------------------------|
G|-----------------4p0-----|
D|---------------4-----4p0-|
A|-------4-0-4-5-----------|
E|-0-4-5-------------------|
  
  4/4
e|-0--0--0--0--0--0--0--0-|-0--0--0--0--0--0--0--0-|
B|-1--1--1--1--1--1--1--1-|-3--3--3--3--3--3--3--3-|
G|-2--2--2--2--2--2--2--2-|-4--4--4--4--4--4--4--4-|
D|-3--3--3--3--3--3--3--3-|-5--5--5--5--5--5--5--5-|
A|-3--3--3--3--3--3--3--3-|-5--5--5--5--5--5--5--5-|
E|------------------------|------------------------|


Bridge:

e|------x-x------x-x-----x-x-|------x-x------x-x-----x-x-|
B|------x-x------x-x-----x-x-|------x-x------x-x-----x-x-|
G|------x-x------x-x-----x-x-|-4--4-x-x-4--4-x-x-4-4-x-x-|
D|-3--3-x-x-3--3-x-x-3-3-x-x-|-3--3-x-x-3--3-x-x-3-3-x-x-|
A|-3--3-x-x-3--3-x-x-3-3-x-x-|-2--2-x-x-2--2-x-x-2-2-x-x-|
E|-1--1-x-x-1--1-x-x-1-1-x-x-|-1--1-x-x-1--1-x-x-1-1-x-x-|

e|------------------------|---------------------------------|
B|-3--3--3--3--3--3--3--3-|---------------------------------|
G|-2--2--2--2--2--2--2--2-|-----0-----0-----0-----0---------|
D|-0--0--0--0--0--0--0--0-|---5-----5-----5-----5-----5---0-|
A|-0--0--0--0--0--0--0--0-|-8-----7-----5-----3-----2---0---|
E|------------------------|---------------------------------|

e|------x-x------x-x-----x-x-|------x-x------x-x-----x-x-|
B|------x-x------x-x-----x-x-|------x-x------x-x-----x-x-|
G|------x-x------x-x-----x-x-|-4--4-x-x-4--4-x-x-4-4-x-x-|
D|-3--3-x-x-3--3-x-x-3-3-x-x-|-3--3-x-x-3--3-x-x-3-3-x-x-|
A|-3--3-x-x-3--3-x-x-3-3-x-x-|-2--2-x-x-2--2-x-x-2-2-x-x-|
E|-1--1-x-x-1--1-x-x-1-1-x-x-|-1--1-x-x-1--1-x-x-1-1-x-x-|

e|------------------------|---------------------------------|
B|-3--3--3--3--3--3--3--3-|---------------------------------|
G|-2--2--2--2--2--2--2--2-|-----0-----0-----0-----0---------|
D|-0--0--0--0--0--0--0--0-|---5-----5-----5-----5-----5---0-|
A|-0--0--0--0--0--0--0--0-|-8-----7-----5-----3-----2---0---|
E|------------------------|---------------------------------|

e|------x-x------x-x-----x-x-|------x-x------x-x-----x-x-|
B|------x-x------x-x-----x-x-|------x-x------x-x-----x-x-|
G|------x-x------x-x-----x-x-|------x-x------x-x-----x-x-|
D|-5--5-x-x-5--5-x-x-5-5-x-x-|-6--6-x-x-6--6-x-x-6-6-x-x-|
A|-5--5-x-x-5--5-x-x-5-5-x-x-|-7--7-x-x-7--7-x-x-7-7-x-x-|
E|-3--3-x-x-3--3-x-x-3-3-x-x-|-4--4-x-x-4--4-x-x-4-4-x-x-|

e|------------------------|------------------------|
B|------------------------|------------------------|
G|------------------------|------------------------|
D|-7--7--7--7--6--6--6--4-|-4--4--4--4--2--2--2--2-|
A|-7--7--7--7--7--7--7--4-|-4--4--4--4--4--4--4--4-|
E|-5--5--5--5--4--4--4--2-|-2--2--2--2--0--0--0--0-|

e|--------------|-----------------|
B|-3-----3~~~~~-|-----------------|
G|-2-0h2-2~~~~~-|-----------------|
D|-0-----0~~~~~-|-----------------|
A|-0-----0~~~~~-|-----------------|
E|--------------|-----------------|


Song Structure:

Verse x4
Chorus 
Verse x4
Chorus
Bridge
Guitar Solo (Verse x4)
Chorus
Verse x4
Chorus
Bridge

************************************

| /   slide up
| \   slide down
| h   hammer-on
| p   pull-off
| ~   vibrato
| +   harmonic
| x   Mute note
| b   Bend
| pb  Pre-bend
| br  Bend release
| pbr Pre-bend release
| brb Bend release bend

************************************
Tap to rate this tab
# A B C D E F G H I J K L M N O P Q R S T U V W X Y Z