Song name
# A B C D E F G H I J K L M N O P Q R S T U V W X Y Z

Talk Show - Peeling An Orange tab

-------------------------------------------------------------------------------
                             Peeling an Orange - TALK SHOW
-------------------------------------------------------------------------------

Tabbed by: KnuckleChildren
E-mail: danreid1977@optusnet.com.au

Acknowledgement: thanks to bronyraur3, your YouTube video helped me with a couple of 
those beastly bridge chords!


Tuning: Standard


Okay, a great song off a great album by a forgotten band. I'll just tab the chords used 
in the verse, chorus and bridge.
You'll have to listen the song for the rhythm. Very fun song to play once you have the 
chord progression down pat.



     Intro/verse (repeat)


e|-----7--------4--------4--------4--------0-----------------7--------------|
B|-----7--------4--------5--------4--------5--------3--------7--------------|
G |----8--------4--------4--------4--------6--------4--------8--------------|
D |----9--------4--------6--------2--------6--------5--------9--------------|
A |----9--------6--------4-----------------0--------5--------9--------------|
E|-----7--------4--------------------------5-----------------7--------------|






     Chorus

e|-----2-------0-------0-------0----0----0----0--------|----2-------0-------------------------|
B|-----2-------0-------0-------0----0----0----0--------|----2-------0-------------------------|
G |----3-------2-------1-------2----1----2----1--------|----3-------2-------9---8---6---------|
D |----4-------2-------2-------2----2----2----2--------|----4-------2-------9---9---7---------|
A |----4-------0-------2-------2----2----2----2--------|----4-------0-------7---6---5---------|
E|-----2---------------0-------0----0----0----0--------|----2---------------------------------|

       ^ this section x2                                           ^ then finish with this





     Bridge (Harmonica solo)

e|-----4--------4-----------------0--------0----------------------------|
B|-----4--------4--------4--------4--------5----------------------------|
G |----5--------5--------3--------4--------6-------  x2 ----------------|
D |----5--------6--------2--------2--------6----------------------------|
A |----6--------4--------x--------4--------0----------------------------|
E|-----4--------6--------2-----------------5----------------------------|



Song structure is: Verse/Chorus/Verse/Chorus/Bridge/Verse/Chorus.


Being such an obscure song, it's unlikely anyone will ever see this, but hopefully 
someone out there appreciates this great song and
gets some use out of this tab.


Any queries, e-mail me.


Enjoy! \m/
Tap to rate this tab
 
# A B C D E F G H I J K L M N O P Q R S T U V W X Y Z